Guitar Tabs for Vaaste

intro
E|--------------------------------------------------------------------------
B|--------------------------------------------------------------------------
G|--------------------------------------------------------------------------
D|---1/3--3--3--3--3--3---3/5--5--5--5--5--5---5/7--7--7--7--7--7---7/8-----
A|--------------------------------------------------------------------------
E|--------------------------------------------------------------------------

Vaaste jaan bhi doon
Main gawaa imaan bhi doon
E|-----------------------------------------------------------------
B|-----------------------------------------------------------------
G|---3/5--3--2-----5--3--2-----5--3---2h-3p2-----------5--3--2-----
D|---------------------------------------------5\3-----------------
A|-----------------------------------------------------------------
E|-----------------------------------------------------------------

Kismaton ka likha mod doon
E|--------------------------------------------
B|--------------------------------------------
G|--------------------------------------------
D|--3--5---5/8-----7--5---5/7-----5--3--3-----
A|--------------------------------------------
E|--------------------------------------------

Badle mein main tere
Jo Khuda khud bhi de
E|-----------------------------------------------------------------
B|-----------------------------------------------------------------
G|---3/5--3--2-----5--3--2-----5--3---2h-3p2-----------5--3--2-----
D|---------------------------------------------5\3-----------------
A|-----------------------------------------------------------------
E|-----------------------------------------------------------------

Jannatein, sach kahoon chhod doon
E|-----------------------------------------------
B|-----------------------------------------------
G|-----------------------------------------------
D|--3--5---5/8-----7--5------5/7-----5--3--3-----
A|-----------------------------------------------
E|-----------------------------------------------

Tumse zyada main na jaanu
Tumse khudko main pehchaanu
E|-----------------------------------------------------------------------------
B|--8--10--8h10p8--6--6--6--6--6--6-----8--10--8h10p8--6--6---6h-8p6--6--------
G|-----------------------------------------------------------------------9-----
D|-----------------------------------------------------------------------------
A|-----------------------------------------------------------------------------
E|-----------------------------------------------------------------------------

Tumko bas main apna maanu mahiya
E|--------------------------------------------------
B|--8--10--8h10p8--6--6--6--6---8/13----13-13-13----
G|--------------------------------------------------
D|--------------------------------------------------
A|--------------------------------------------------
E|--------------------------------------------------

Vaaste jaan bhi doon
Main gawaa imaan bhi doon 
E|---6/8--6--5-----8--6--5-----8--6---5h-6p5-----------8--6--5-----
B|---------------------------------------------8\6-----------------
G|-----------------------------------------------------------------
D|-----------------------------------------------------------------
A|-----------------------------------------------------------------
E|-----------------------------------------------------------------

Qismaton ka likha mod doon
E|--------------------------------------------------
B|--6--8---8/11----10-8---8/10----8--6--6---6/10----
G|--------------------------------------------------
D|--------------------------------------------------
A|--------------------------------------------------
E|--------------------------------------------------


Tere alawa koi bhi khwahish
Nahi hai baaki dil mein
E|--------------------------------------------------------------------------------------------
B|-----8--10----8--10----10----8--10----8--10----10----8--10----8---8h10p8--8-----------------
G|--------------------------------------------------------------------------------9-----7-----
D|--------------------------------------------------------------------------------------------
A|--------------------------------------------------------------------------------------------
E|--------------------------------------------------------------------------------------------

Kadam uthaaun jahaan bhi jaaun
Tujhi se jaaun mil main
E|-----------------------------------------------------------------------------------
B|--8--10----8--10----10----8--10----8--10----10----8--10----8---8h10p8--6--6--6-----
G|-----------------------------------------------------------------------------------
D|-----------------------------------------------------------------------------------
A|-----------------------------------------------------------------------------------
E|-----------------------------------------------------------------------------------

Tere liye.. mera safar..
E|--10-13-13-13----------10-13-13-13----10h13p10-------
B|-----------------------------------------------13----
G|-----------------------------------------------------
D|-----------------------------------------------------
A|-----------------------------------------------------
E|-----------------------------------------------------

Tere bina.. main jaaun kidhar
E|--10-13-13-13----------17-15-15----
B|-----------------13-15-------------
G|-----------------------------------
D|-----------------------------------
A|-----------------------------------
E|-----------------------------------


Vaaste jaan bhi doon
Main gawaa imaan bhi doon 
E|---6/8--6--5-----8--6--5-----8--6---5h-6p5--------8--6--5--
B|---------------------------------------------8\6-----------
G|-----------------------------------------------------------
D|-----------------------------------------------------------
A|-----------------------------------------------------------
E|-----------------------------------------------------------

Qismaton ka likha mod doon
E|--------------------------------------------
B|--6--8---8/11----10-8---8/10----8--6--6-----
G|--------------------------------------------
D|--------------------------------------------
A|--------------------------------------------
E|--------------------------------------------
tabs and chords, guitar tabs, music transcription, music technology, deep learning, music information retrieval, transcribe into tabs & chords, chordify, music renditions, songsterr, reverbnation, tabulature, bollywood chords, ultimate guitar, yousician, guitar lessons, acoustic guitar, electric guitar, guitar tuner, 911 tabs