Guitar Tabs for Urvashi Urvashi

Intro
E|--------------------------------------------------------------------------------------
B|--------------------------------------------------------------------------------------
G|--------------------------------------------------------------------------------------
D|--------------------------4--4--4-x-x-6-----------------------------4--4--4-x-x-6-----
A|--4-----4--4-----4--6--7--------------------4-----4--4-----4--6--7--------------------
E|--------------------------------------------------------------------------------------

urvashi urvashi...
E|-----------------------------------------------------------------------------
B|------------4h-5p4---------------4h-5p4--------4--5--7--5--4---4h-5p4--------
G|--6-----6-----------6--6-----6-----------6--6--------------------------6-----
D|-----------------------------------------------------------------------------
A|-----------------------------------------------------------------------------
E|-----------------------------------------------------------------------------

ungli jaisi dubli ko...
E|-----------------------------------------------------------------------
B|------------4h-5p4--------------4-----4--5--5--7--5--4---4h-5p4--------
G|--6-----6-----------6--6-----6-----6-----------------------------6-----
D|-----------------------------------------------------------------------
A|-----------------------------------------------------------------------
E|-----------------------------------------------------------------------

jeet ka...
E|-----------------------------------------------------------------------------------------------------
B|--5--4--5-----5--4--5-----4--4--4--------------------5--4--5--5-----5--4--5--4--4--4-----------------
G|-----------------------------------6-----6--6--6--------------------------------------6--6--6--6-----
D|-----------------------------------------------------------------------------------------------------
A|-----------------------------------------------------------------------------------------------------
E|-----------------------------------------------------------------------------------------------------

urvashi urvashi...
E|-----------------------------------------------------------------------------------
B|------------4h-5p4---------------4h-5p4--------4--5--7--5--4---4h-5p4--------------
G|--6-----6-----------6--6-----6-----------6--6--------------------------6--4---4/6--
D|-----------------------------------------------------------------------------------
A|-----------------------------------------------------------------------------------
E|-----------------------------------------------------------------------------------

tabs and chords, guitar tabs, music transcription, music technology, deep learning, music information retrieval, transcribe into tabs & chords, chordify, music renditions, songsterr, reverbnation, tabulature, bollywood chords, ultimate guitar, yousician, guitar lessons, acoustic guitar, electric guitar, guitar tuner, 911 tabs