Guitar Tabs for Urvashi - Yo Yo Honey Singh

(/) Slide Up  (\) Slide Down  (h) Hammer On  (p) Pull Off  (b) Bend (r) Release (v) Vibrato (x) Muted

Masha’allah 
E|--------------
B|--------------
G|--5--8--5--5--
D|--------------
A|--------------
E|--------------

Masha’allah, teri nazar teri nazar Mil jaaye mujhse agar mujhse agar   
E|-----------------------------------------------------
B|-----------------------------------------------------
G|--5--8--5--5--------5--8--10-10-------5--8--10-10----
D|-----------------------------------------------------
A|-----------------------------------------------------
E|-----------------------------------------------------
Maana mujhe mujhko tu mili hai late Dono ke beech mein kuch hogaya relate Jodi hai teri aur meri baby
E|--------------------------------
B|--------------------------------
G|--5--8--8--8--5--3--3--5--5-----
D|--------------------------------
A|--------------------------------
E|--------------------------------

Jaise Jodha aur Akbar the great-
E|--------------------
B|--------------------
G|--5--8--8--10-10-12\
D|--------------------
A|--------------------
E|--------------------
Urvasi Urvasi take it easy Urvasi
E|-----------h--------------------------------------------------
B|-----------------------------------------------------------
G|--5--5---5h8--5-----5--5---5h8--5-----5--7--8--10-8--7--8--
D|-----------------------------------------------------------
A|-----------------------------------------------------------
E|-----------------------------------------------------------
Sundar ladkiyan charon ore Par tu sabse sexy
E|--------------------------------------------
B|--------------------------------------------
G|--5--5--8--8--5--5--8--5--7--8--10-8--7--8--
D|--------------------------------------------
A|--------------------------------------------
E|--------------------------------------------

Paste any tab in acousterr's tab maker and we'll play it !!!
Now supports capo and sound effects for vibrato/pull-off/hammer/bends/mutes etc !!! Checkout help section
tabs and chords, guitar tabs, music transcription, music technology, deep learning, music information retrieval, transcribe into tabs & chords, chordify, music renditions, songsterr, reverbnation, tabulature, bollywood chords, ultimate guitar, yousician, guitar lessons, acoustic guitar, electric guitar, guitar tuner, 911 tabs