Bass Tabs for Ultrasonido Radical

(/) Slide Up  (\) Slide Down  (h) Hammer On  (p) Pull Off  (b) Bend (r) Release (v) Vibrato (x) Muted

Tabs for Song : Ultrasonido radical

Song lyrics here
F|--------------------------------------------------------------------------------------
C|--------------------------------------------------------------------------------------
G|--12-12-12-12-12-12-12-12-12-12-12-12-12-12-12-12-12-12-12-12-12-12-12-12-12-12-12-12-
C|--------------------------------------------------------------------------------------

F|-----------------------------------------
C|-----------------------------------------
G|--------------------------12----------12-
C|--12-12-12-12-12-12-12-12----------------

Song lyrics here
F|--------------------------------------------------------------
C|--------------------------------------------------------------
G|--------------------------------------------------------------
C|--12-12-12-12-12-12-12-12-12-12-12-12-12-12-12-12-12-12-12-12-

F|--------------------------------------------------
C|--------------------------------------------------
G|--------------------------------------------------
C|--0--0--0--0--0--0--0--0--0--0--0--0--0--0--0--0--

F|-----------------------------------------------------------------------------------------------------
C|-----------------------------------------------------------------------------------------------------
G|--12-12-12-12-12-12-12-12-12-12-12-12-12-12-12-12-12-12-12-12-12-12-12-12-12-12-12-12-12-12-12-12----
C|--------------------------------------------------------------------------------------------------12-

F|-----------------------------------------------------------------------------------------
C|-----------------------------------------------------------------------------------------
G|--12-12-12-12-12-12-12-12-------------------------12-12-12-12-12-12-12-12----------------
C|--------------------------12-12-12-12-12-12-12-12-------------------------12-12-12-12-12-

F|-----------------
C|-----------------
G|--12-12-12-12-12-
C|-----------------

F|--------------------------------------------------------------------------------------------
C|--------------------------------------------------------------------------------------------
G|--12-12-12-12-12-12-12-12-12-12-12-12-12-12-12-12-12-12-12-12-12-12-12-12-12-12-12-12-12-12-
C|--------------------------------------------------------------------------------------------

F|--------------------------------------------------------------------------------------------
C|--------------------------------------------------------------------------------------------
G|--------------------------------------------------------------------------------------------
C|--12-12-12-12-12-12-12-12-12-12-12-12-12-12-12-12-12-12-12-12-12-12-12-12-12-12-12-12-12-12-

F|--------------------------------------------
C|--------------------------------------------
G|--------------------------------------------
C|--0--0-----0--0-----0--0-----0--0-----0-----

F|-----------------------------------------------------------------------------------------------------
C|-----------------------------------------------------------------------------------------------------
G|-----------------------------------------------------------------------------------------------------
C|--7--7--7--7--7--7--7--7--9--9--9--9--9--9--9--9--9--9--9--9--9--9--9--9--9--9--9--9--9--9--9--9--0--

F|--------------------------------------------------------------------------
C|--------------------------------------------------------------------------
G|--12-12-12-12-12-12-12-12-14-14-14-14-14-14-14-14-15-15-15-15-15-15-15-15-
C|--------------------------------------------------------------------------

F|--------------------------------------------------------------------
C|--------------------------------------------------------------------
G|--------------------------------------------------------------------
C|--0--10-0--10-0--10-0--10-0--10-0--10-0--10-0--10-0--10-0--10-0--10-



Paste any tab in acousterr's tab maker and we'll play it !!!
Now supports capo and sound effects for vibrato/pull-off/hammer/bends/mutes etc !!! Checkout help section
tabs and chords, guitar tabs, music transcription, music technology, deep learning, music information retrieval, transcribe into tabs & chords, chordify, music renditions, songsterr, reverbnation, tabulature, bollywood chords, ultimate guitar, yousician, guitar lessons, acoustic guitar, electric guitar, guitar tuner, 911 tabs