Guitar Tabs for Ultrasonido Radical

(/) Slide Up  (\) Slide Down  (h) Hammer On  (p) Pull Off  (b) Bend (r) Release (v) Vibrato (x) Muted

Tabs for Song : 


D|--------------------------------------------------------------------------
A|--------------------------------7-----8-----7-----------7-----8-----7-----
F|--9--9--9--9--9--9--9--9--9-----------------------9-----------------------
C|--------------------------------------------------------------------------
G|--------------------------------------------------------------------------
C|--------------------------------------------------------------------------

D|-----
A|-----
F|--9--
C|-----
G|-----
C|-----

D|-----7-----------------7--------
A|--------8--7--------------8--7--
F|--9-----------9-----9-----------
C|--------------------------------
G|--------------------------------
C|--------------------------------

D|--10-10-10-10-9--9--9--9--10-10-10-10-9--9--9--9--
A|--------------------------------------------------
F|--------------------------------------------------
C|--------------------------------------------------
G|--------------------------------------------------
C|--------------------------------------------------

D|--------------------------------------------------
A|--8--8--8--8--8--8--8--8--8--8--8--8--8--8--8--8--
F|--------------------------------------------------
C|--------------------------------------------------
G|--------------------------------------------------
C|--------------------------------------------------

D|--------------------------------------------------
A|-----8-----8-----8-----8-----8-----8-----8--------
F|--7-----7-----7-----7-----7-----7-----7-----------
C|--------------------------------------------------
G|--------------------------------------------------
C|--------------------------------------------------

D|-----------------------------------------------------------------------------------------------
A|--------------8-----7--------------------------------------8-----7-----------------------------
F|--7-----9-----------------9-----7-----9--------7-----9-----------------9-----7-----9-----------
C|-----------------------------------------------------------------------------------------------
G|-----------------------------------------------------------------------------------------------
C|-----------------------------------------------------------------------------------------------

D|--------------------------------------------------------------------------------------------------------------------
A|--------------------------------------------------------------------------------------12-12-12-12-12-12-12-12-12-12-
F|--9-----------9--9--9--9--9--9--9--9--11-11-11-11-11-11-11-11-12-12-12-12-12-12-12-12-------------------------------
C|--------------------------------------------------------------------------------------------------------------------
G|--------------------------------------------------------------------------------------------------------------------
C|--------------------------------------------------------------------------------------------------------------------

D|--------------------
A|--------------------
F|--9--9--9--9--9--9--
C|--------------------
G|--------------------
C|--------------------

D|--------------------------------------
A|--------------------------------------
F|--9--9--9--9--11-11-11-11-12-12-12-12-
C|--------------------------------------
G|--------------------------------------
C|--------------------------------------

D|--------------------------
A|--------------------------
F|--9--9--9--9--9--9--9--9--
C|--------------------------
G|--------------------------
C|--------------------------

D|--------------------------------------------------
A|--------------------------------------------------
F|--12-12-12-12-11-11-11-11-12-12-12-12-9-----------
C|--------------------------------------------------
G|--------------------------------------------------
C|--------------------------------------------------

D|-----------------------------------------------------------------------------------------
A|--------12----------12----------12----------12----------12----------12----------12----12-
F|--9-----------9-----------9-----------9-----------9-----------9-----------9-----------9--
C|-----------------------------------------------------------------------------------------
G|-----------------------------------------------------------------------------------------
C|-----------------------------------------------------------------------------------------

D|-----------------------------------------------------------------------------------------------------------------------------
A|--------------------12----------12----------12-------12-------------------------12----------12----------12-------12----------
F|--11-------------9-----11----9-----11----9-----11----------------11----------9-----11----9-----11----9-----11-------------11-
C|-----------------------------------------------------------------------------------------------------------------------------
G|-----------------------------------------------------------------------------------------------------------------------------
C|-----------------------------------------------------------------------------------------------------------------------------

Song lyrics here
D|--------------7--7--7--7-----------------------------------------------------------------------
A|--------------------------8--8--8--8--7--7--7--7-----------------------------------------------
F|--9--9--9--9--------------------------------------9--9--9--9--11-11-11-11-12-12-12-12-12-12-12-
C|-----------------------------------------------------------------------------------------------
G|-----------------------------------------------------------------------------------------------
C|-----------------------------------------------------------------------------------------------

D|-----------------------------------------------
A|--12----12----12----12----12----12----12----12-
F|-----9-----9-----9-----9-----9-----9-----9-----
C|-----------------------------------------------
G|-----------------------------------------------
C|-----------------------------------------------

D|--------------------------------------------------------
A|-----------7-----------7--8--7--8--7--------------------
F|--9--------------------------------------------7--------
C|-----------------------------------------9--------------
G|--------------------------------------------------------
C|--------------------------------------------------------

D|--------------7--7--7--7--------------------------------------------------------------
A|--------------------------8--8--8--8--7--7--7--7--------------------------------------
F|--9--9--9--9--------------------------------------9--9--9--9--11-11-11-11-12-12-12-12-
C|--------------------------------------------------------------------------------------
G|--------------------------------------------------------------------------------------
C|--------------------------------------------------------------------------------------

D|--------------------------------------------------------------------------------------------------
A|--------------------------------------------------------------------------------------------------
F|--7--7--7--7--9--9--9--9--11-11-11-11-12-12-12-12-7--7--7--7--9--9--9--9--11-11-11-11-12-12-12-12-
C|--------------------------------------------------------------------------------------------------
G|--------------------------------------------------------------------------------------------------
C|--------------------------------------------------------------------------------------------------



Paste any tab in acousterr's tab maker and we'll play it !!!
Now supports capo and sound effects for vibrato/pull-off/hammer/bends/mutes etc !!! Checkout help section
tabs and chords, guitar tabs, music transcription, music technology, deep learning, music information retrieval, transcribe into tabs & chords, chordify, music renditions, songsterr, reverbnation, tabulature, bollywood chords, ultimate guitar, yousician, guitar lessons, acoustic guitar, electric guitar, guitar tuner, 911 tabs