Guitar Tabs for Twd2

(/) Slide Up  (\) Slide Down  (h) Hammer On  (p) Pull Off  (b) Bend (r) Release (v) Vibrato (x) Muted

Tabs & Chords
BPM : 117.0
Check Track 2 for Chord Positions 

                      G#    A#          F                             Gm    G#    A#             
E|-----------------------------------------------------------------------------------------------
B|--3-----------4-----3-----------------------------------------3-----------4-----3--------------
G|--------5-----------------3-----5-----2-----3-----0--2--3--0--------5-----------------3-----5--
D|-----------------------------------------------------------------------------------------------
A|-----------------------------------------------------------------------------------------------
E|-----------------------------------------------------------------------------------------------

       F                 G              C                                   A#                   
E|-----------------------------------------------------------------------------------------------
B|-----------------------------------------------------------------------------------------------
G|-----2-----3-----0-----2--0--2--0-----------3-----5-----3--0--------------------------------3--
D|--------------------------------------------------------------0-----------3-----0-----3--------
A|--------------------------------------3--------------------------3-----------------------------
E|--------------------------------------------------------------------6--------------------------

                   C           A#                                                 

E|--
B|--
G|--
D|--
A|--
E|--


Guitar Tabs for Twd2






                      G#    A#          F                             Gm    G#    A#             
E|--------------------4-----1-----------1-----------------------------3-----4-----1--------------
B|--------------------4-----3-----------1-----------------------------3-----4-----3--------------
G|--------------------5-----3-----------2-----------------------------3-----5-----3--------------
D|--------------------6-----3-----------3-----------------------------5-----6-----3--------------
A|--------------------6-----1-----------3-----------------------------5-----6-----1--------------
E|--------------------4-----------------1-----------------------------3-----4--------------------

       F                 G              C                                   A#                   
E|-----1-----------------3--------------0-----------------------------------1--------------------
B|-----1-----------------3--------------1-----------------------------------3--------------------
G|-----2-----------------4--------------0-----------------------------------3--------------------
D|-----3-----------------5--------------2-----------------------------------3--------------------
A|-----3-----------------5--------------3-----------------------------------1--------------------
E|-----1-----------------3-----------------------------------------------------------------------

                   C           A#                                                 
E|-----------------0-----------1--------------------------------------------------
B|-----------------1-----------3--------------------------------------------------
G|-----------------0-----------3--------------------------------------------------
D|-----------------2-----------3--------------------------------------------------
A|-----------------3-----------1--------------------------------------------------
E|--------------------------------------------------------------------------------

tabs and chords, guitar tabs, music transcription, music technology, deep learning, music information retrieval, transcribe into tabs & chords, chordify, music renditions, songsterr, reverbnation, tabulature, bollywood chords, ultimate guitar, yousician, guitar lessons, acoustic guitar, electric guitar, guitar tuner, 911 tabs