Guitar Tabs for Tum Mile Love Reprise - Javed Ali Tabs

(/) Slide Up  (\) Slide Down  (h) Hammer On  (p) Pull Off  (b) Bend (r) Release (v) Vibrato (x) Muted

Tabs for Song : Tum Mile Love Reprise

Tu Hi Meri Hai Saari Zameen Chahe Kahin Se Chalun Tujh Mein Hi Aake Ruku
E|-----------------------5-----------------------------------------------------
B|--5--8--8--8--8--8--8-----8--8--6--6--5--------5-----8--6--6--5--------------
G|-----------------------------------------5--7-----7--------------5--7--5--5--
D|-----------------------------------------------------------------------------
A|-----------------------------------------------------------------------------
E|-----------------------------------------------------------------------------

Tere Siva Main Jaun Kahan Koi Bhi Raah Chunu Tujh Mein Hi Aake Ruku
E|-----------------------5-----------------------------------------------------
B|--5--8--8--8--8--8--8-----8--8--6--6--5--------5-----8--6--6--5--------------
G|-----------------------------------------5--7-----7--------------5--7--5--5--
D|-----------------------------------------------------------------------------
A|-----------------------------------------------------------------------------
E|-----------------------------------------------------------------------------

Tum Mile To Lamhein Tham Gaye
E|--------------------------------
B|-----8--5--5--5-----------8-----
G|-----------------7--5--7-----7--
D|--5-----------------------------
A|--------------------------------
E|--------------------------------

Tum Mile To Saare Gum Gaye
E|--------------------------------
B|--5-----------------------5-----
G|-----7--5--5---5\4-----4-----4--
D|--------------------7-----------
A|--------------------------------
E|--------------------------------

Tum Mile To Muskhurana Aa Gaya
E|-----------------------------------
B|-----------------------------------
G|--4--5-----------4--5-----7--4--5--
D|--------7--7--7--------5-----------
A|-----------------------------------
E|-----------------------------------

Tum Mile To Jadoo Chaa Gaya
E|--------------------------------
B|-----8--5--5--5-----------8-----
G|-----------------7--5--7-----7--
D|--5-----------------------------
A|--------------------------------
E|--------------------------------

Tum Mile To Jeena Aa Gaya
E|--------------------------------
B|--5-----------------------5-----
G|-----7--5--5---5\4-----4-----4--
D|--------------------7-----------
A|--------------------------------
E|--------------------------------

Tum Mile To Mene Paya Hai Khuda
E|-----------------------------------
B|-----------------------------------
G|--4--5-----------4--5-----7--4--5--
D|--------7--7--7--------5-----------
A|-----------------------------------
E|-----------------------------------
tabs and chords, guitar tabs, music transcription, music technology, deep learning, music information retrieval, transcribe into tabs & chords, chordify, music renditions, songsterr, reverbnation, tabulature, bollywood chords, ultimate guitar, yousician, guitar lessons, acoustic guitar, electric guitar, guitar tuner, 911 tabs