Mile Ho Tum Humko Guitar Tabs || Indiacoustic Bro - Guitar Tabs

(/) Slide Up  (\) Slide Down  (h) Hammer On  (p) Pull Off  (b) Bend (r) Release (v) Vibrato (x) Muted

Tabs for Song : 
BPM : 200

Song lyrics here 
E|--------------------------------------------
B|-----9-----8-----9-----9------9/8-----6-----
G|--5-----------------------------------------
D|--------------------------------------------
A|--------------------------------------------
E|--------------------------------------------

E|--------------------------------------------
B|--6--8-----8-----8-----8------8/6-----------
G|--------------------------------------8-----
D|--------------------------------------------
A|--------------------------------------------
E|--------------------------------------------

E|--------------------------------------------
B|-----6-----6-----6-----6------6/4-----------
G|--8-----------------------------------6-----
D|--------------------------------------------
A|--------------------------------------------
E|--------------------------------------------

E|--------------------------------------------
B|-----------8--8---8/9------8/9-----6--------
G|--------------------------------------------
D|--8--8--8-----------------------------------
A|--------------------------------------------
E|--------------------------------------------



E|--------------------------------------------
B|-----9-----8-----9-----9------9/8-----6-----
G|--5-----------------------------------------
D|--------------------------------------------
A|--------------------------------------------
E|--------------------------------------------

E|-----------------------------------------------
B|--6--8-----8-----8------8/11-----8/6-----------
G|-----------------------------------------8-----
D|-----------------------------------------------
A|-----------------------------------------------
E|-----------------------------------------------

E|--------------------------------------------
B|-----6-----6-----6-----6------6/4-----------
G|--8-----------------------------------6-----
D|--------------------------------------------
A|--------------------------------------------
E|--------------------------------------------

E|--------------------------------------------
B|-----------8--8---8/9------8/9-----6--------
G|--------------------------------------------
D|--8--8--8-----------------------------------
A|--------------------------------------------
E|--------------------------------------------

E|--------------------8-----8-----8--8-----8--8--8-----9-----6--------------------
B|--6-----8-----9--------------------------------------------------8-----8--------
G|--------------------------------------------------------------------------------
D|--------------------------------------------------------------------------------
A|--------------------------------------------------------------------------------
E|--------------------------------------------------------------------------------

E|-----------9-----9--9-----9-----9--------------------------------8--------
B|--8--8--------------------------------8------8h-9p6------8/9--------------
G|--------------------------------------------------------------------------
D|--------------------------------------------------------------------------
A|--------------------------------------------------------------------------
E|--------------------------------------------------------------------------

E|-----------------------------------------------
B|-----9-----8-----9-----9------9/8-----6--------
G|--5--------------------------------------------
D|-----------------------------------------------
A|-----------------------------------------------
E|-----------------------------------------------

E|-----------------------------------------------
B|--6--8-----8-----8-----8------8/6--------------
G|--------------------------------------8--------
D|-----------------------------------------------
A|-----------------------------------------------
E|-----------------------------------------------

E|-----------------------------------------------
B|-----6-----6-----6-----6------6/4--------------
G|--8-----------------------------------6--------
D|-----------------------------------------------
A|-----------------------------------------------
E|-----------------------------------------------


E|-----------------------------------------------
B|-----------8--8---8/9------8/9-----6-----------
G|-----------------------------------------------
D|--8--8--8--------------------------------------
A|-----------------------------------------------
E|-----------------------------------------------

E|-----------------------------------------------
B|-----9-----8-----9-----9------9/8-----6--------
G|--5--------------------------------------------
D|-----------------------------------------------
A|-----------------------------------------------
E|-----------------------------------------------


E|--------------------------------------------------------
B|--6--8-----8-----8-----8------8/11-----8/6--------------
G|-----------------------------------------------8--------
D|--------------------------------------------------------
A|--------------------------------------------------------
E|--------------------------------------------------------

E|-----------------------------------------------
B|-----6-----6-----6-----6------6/4--------------
G|--8-----------------------------------6--------
D|-----------------------------------------------
A|-----------------------------------------------
E|-----------------------------------------------

E|-----------------------------------------------
B|-----------8--8---8/9------8/9-----6-----------
G|-----------------------------------------------
D|--8--8--8--------------------------------------
A|-----------------------------------------------
E|-----------------------------------------------

E|-----------------------------------------------
B|--2-----2--2-----2-----1------2/-4/1--1-----2--
G|-----------------------------------------------
D|-----------------------------------------------
A|-----------------------------------------------
E|-----------------------------------------------

E|-----------------------------------------------
B|---1h2-----1-----------------------------------
G|--------------3------3/5------5/3------3/1-----
D|-----------------------------------------------
A|-----------------------------------------------
E|-----------------------------------------------

E|-----------------------------------------------------------------
B|-----------------2-----2--2--2-----1--1------2/-4/1-----1-----2--
G|-----------3-----------------------------------------------------
D|---3/5-----------------------------------------------------------
A|-----------------------------------------------------------------
E|-----------------------------------------------------------------

E|--------------------------------------------------
B|---1h2-----1--------------------------------------
G|--------------3------3/5------5/3------3/1--------
D|--------------------------------------------------
A|--------------------------------------------------
E|--------------------------------------------------

E|-----------------------------------------------
B|--6-----8--9-----6-----6------8/9-----9--9-----
G|-----------------------------------------------
D|-----------------------------------------------
A|-----------------------------------------------
E|-----------------------------------------------

E|-----------------------------------------------
B|--11/9------8/6-----6---6/8------8/6-----------
G|-----------------------------------------8-----
D|-----------------------------------------------
A|-----------------------------------------------
E|-----------------------------------------------

E|-----------------------------------------------
B|--6-----9--8-----6-----------------------------
G|------------------------8/6-----6-----5-----6--
D|-----------------------------------------------
A|-----------------------------------------------
E|-----------------------------------------------

E|--------------------------------------------
B|---8/9-----8-----6--6-----------------------
G|--------------------------------------------
D|--------------------------------------------
A|--------------------------------------------
E|--------------------------------------------

E|--
B|--
G|--
D|--
A|--
E|--



E|--
B|--
G|--
D|--
A|--
E|--

Song lyrics here 
E|--
B|--
G|--
D|--
A|--
E|--

Use manual mode to free up cursor. Paste any tab in acousterr tab maker and we'll play it !!!
tabs and chords, guitar tabs, music transcription, music technology, deep learning, music information retrieval, transcribe into tabs & chords, chordify, music renditions, songsterr, reverbnation, tabulature, bollywood chords, ultimate guitar, yousician, guitar lessons, acoustic guitar, electric guitar, guitar tuner, 911 tabs