Guitar Tabs for Mile Ho Tum Humko

(/) Slide Up  (\) Slide Down  (h) Hammer On  (p) Pull Off  (b) Bend (r) Release (v) Vibrato (x) Muted

Tabs for Song : 
    mile ho tum humko bade naseebon se
E|--------------------------------------------------
B|--------------------------------------------------
G|--------------------------------------------------
D|-----3--2--3--2--0-----0--2--0--2--2--0-----------
A|--0--------------------------------------3--------
E|--------------------------------------------------
 
    churaya hai mainne ismat ki akeeron se
E|-----------------------------------------------------------------
B|-----------------------------------------------------------------
G|-----------------------------------------------------------------
D|-----0-----0--0--0-----------------3--3--2--0--2--0--0-----------
A|--3-----3-----------3--1--0--0--0--------------------------------
E|-----------------------------------------------------------------
    teri mohabbat se wakif hue hai
E|-----------------------------------------
B|-----------------------------------------
G|-----------2--2--2-----2--3--------------
D|--0--2--3--------------------3--2--2-----
A|-----------------------------------------
E|-----------------------------------------
  sada rehna dil me kariib ho ke
E|-----------------------------------------------------
B|-----------------------------------------------------
G|--------3--3--------------------------------2--------
D|--2--2-----------3--2--2---2h3---3p0--2--3-----------
A|-----------------------------------------------------
E|-----------------------------------------------------
   teri chahaton me kitna tarse hai
E|-----6--6--6--6--6--6--6--5--6--5---3h5--3--------------
B|--3-----------------------------------------6--3--------
G|--------------------------------------------------------
D|--------------------------------------------------------
A|--------------------------------------------------------
E|--------------------------------------------------------
     saavan bhi tujh bin kitne barse hai
E|-----------6--6--6--6--6--6--5--6--5---3h5--3--------------
B|--3--5--6--------------------------------------6--3--------
G|-----------------------------------------------------------
D|-----------------------------------------------------------
A|-----------------------------------------------------------
E|-----------------------------------------------------------
    zinndage me mere sari jo bji kami thi
E|-----------------------------3--------------------
B|--3--5--6--5--3--6--6--6--------6--5---3h5--5-----
G|--------------------------------------------------
D|--------------------------------------------------
A|--------------------------------------------------
E|--------------------------------------------------
   tere aa jane se ab nahi rahi
E|-----------------------------------------
B|--3--6--5--3--------------5--3--5--3--3--
G|--------------5--3--3--3-----------------
D|-----------------------------------------
A|-----------------------------------------
E|-----------------------------------------

E|--
B|--
G|--
D|--
A|--
E|--

tabs and chords, guitar tabs, music transcription, music technology, deep learning, music information retrieval, transcribe into tabs & chords, chordify, music renditions, songsterr, reverbnation, tabulature, bollywood chords, ultimate guitar, yousician, guitar lessons, acoustic guitar, electric guitar, guitar tuner, 911 tabs