Guitar Tabs for Dil Ibadat - Tum Mile Tabs

(/) Slide Up  (\) Slide Down  (h) Hammer On  (p) Pull Off  (b) Bend (r) Release (v) Vibrato (x) Muted

Tabs for Song : Dil Ibadat

Intro (4 Times)
E|-----------------------------8--10----------------
B|-----------8--10-8--10-8--10-------8--6--8--6--5--
G|--7--9--10----------------------------------------
D|--------------------------------------------------
A|--------------------------------------------------
E|--------------------------------------------------

Dil Ibadat Kar Raha Hai Dhadkane Meri Sun
E|-----------------------------------------------------
B|--------6--5--6--------5--3--------------------------
G|------------------3/5---------5\3--3--3--3--5--3--2--
D|---5/7-----------------------------------------------
A|-----------------------------------------------------
E|-----------------------------------------------------

Tujhko Main Kar Loon Hasil Lagi Hai Yahi Dhun
E|-----------------------------------------------
B|-----------------------------------------------
G|--2--------------2--2--2--2--3--2--2-----2--2--
D|-----5--3--2--------------------------5--------
A|--------------5--------------------------------
E|-----------------------------------------------

Zindgi Ki Shakh Se Loon Kuchh Hasin Pal Le Chun
E|-----------------------------------------------------
B|--------6--5--6--------5--3--------------------------
G|------------------3/5---------5\3--3--3--3--5--3--2--
D|---5/7-----------------------------------------------
A|-----------------------------------------------------
E|-----------------------------------------------------

Tujhko Main Kar Loo Hasil Lagi Hai Yahi Dhun
E|-----------------------------------------------
B|-----------------------------------------------
G|--2--------------2--2--2--2--3--2--2-----2--2--
D|-----5--3--2--------------------------5--------
A|--------------5--------------------------------
E|-----------------------------------------------

Jo Bhi Jitne Pal Jeeyu Unhe Tere Sang Jeeyu
E|--------------------------------------------------------
B|-----5--6--6--6--8--6--5--------5--6--6--6--8--6--5-----
G|--7-----------------------7--7-----------------------7--
D|--------------------------------------------------------
A|--------------------------------------------------------
E|--------------------------------------------------------

Jo Bhi Kal Ho Ab Tera Use Tere Sang Jeeyu
E|-----------------------------------------------------
B|--8--8--8--5--5--5--3--5--3--------------------------
G|-----------------------------5--5--3--3--3--5--3--2--
D|-----------------------------------------------------
A|-----------------------------------------------------
E|-----------------------------------------------------

Jo Bhi Saanse Main Bharoo Unhe Tere Sang Bharoo
E|-----5-----------------------------5--------------------------
B|--------8--6--6--6--8--6--5-----------8--6--6--6--8--6--5-----
G|--7--------------------------7--7--------------------------7--
D|--------------------------------------------------------------
A|--------------------------------------------------------------
E|--------------------------------------------------------------

Chahe Jo Hona Rasta Use Tere Sang Chalu
E|-----------------------------------------------------
B|--8--8--8--5--5--5--3--5--3--------------------------
G|-----------------------------5--5--3--3--3--5--3--2--
D|-----------------------------------------------------
A|-----------------------------------------------------
E|-----------------------------------------------------

Dil Ibadat Kar Raha Hai Dhadkane Meri Sun
E|-----------------------------------------------------
B|--------6--5--6--------5--3--------------------------
G|------------------3/5---------5\3--3--3--3--5--3--2--
D|---5/7-----------------------------------------------
A|-----------------------------------------------------
E|-----------------------------------------------------

Tujhko Main Kar Loon Hasil Lagi Hai Yahi Dhun
E|-----------------------------------------------
B|-----------------------------------------------
G|--2--------------2--2--2--2--3--2--2-----2--2--
D|-----5--3--2--------------------------5--------
A|--------------5--------------------------------
E|-----------------------------------------------
tabs and chords, guitar tabs, music contests, music covers, songsterr, reverbnation, renditions, tabulature, bollywood chords, ultimate guitar, yousician, guitar lessons, torrins, fender, gibson, acoustic guitar, electric guitar, youtube covers, gootar, guitar tuner, A-Z tabs, 911 tabs