Guitar Tabs for Tum Mere Ho - Hate Story Iv Tabs

(/) Slide Up  (\) Slide Down  (h) Hammer On  (p) Pull Off  (b) Bend (r) Release (v) Vibrato (x) Muted

Tabs for Song : Tum Mere Ho

Ik din akele the hum tum Tum mujh mein main tum mein gum
E|-----8-----8--8--11-11-10-10-8--8-----8--8-----8--8--11-11-10-10-8--8--
B|--8-----11-------------------------8--------11-------------------------
G|-----------------------------------------------------------------------
D|-----------------------------------------------------------------------
A|-----------------------------------------------------------------------
E|-----------------------------------------------------------------------

Mere kaanon mein aahista se Uss roz kaha tha jo tumne
E|--8--13-13-11-11-10-10-8--8--------8--10-8--10-8--13-13-11-11-10-10-8--8--------8--10-8--10-
B|-----------------------------11-11----------------------------------------11-11-------------
G|--------------------------------------------------------------------------------------------
D|--------------------------------------------------------------------------------------------
A|--------------------------------------------------------------------------------------------
E|--------------------------------------------------------------------------------------------

Kisi aur se na wo kehna
E|--15-15-16-15-13-11-10-10/11-11/13-15\13\11\10-8-----
B|--------------------------------------------------11-
G|-----------------------------------------------------
D|-----------------------------------------------------
A|-----------------------------------------------------
E|-----------------------------------------------------

Tum mere ho mere rehna 
E|--------8--10-8--8---8/11-11\10-10-10h11-8-----
B|--11-11-------------------------------------11-
G|-----------------------------------------------
D|-----------------------------------------------
A|-----------------------------------------------
E|-----------------------------------------------

Tum mere ho mere rehna
E|-----8--10-8-----------8--------------
B|--11----------11\9--9-----11-9--8--8--
G|--------------------------------------
D|--------------------------------------
A|--------------------------------------
E|--------------------------------------

Tum mere ho mere rehna 
E|--------8--10-8--8---8/11-11\10-10-10-13-
B|--11-11----------------------------------
G|-----------------------------------------
D|-----------------------------------------
A|-----------------------------------------
E|-----------------------------------------

Tum mere ho mere rehna
E|--11-11-10h11-10/8--8--------8--8--------8--8--
B|-----------------------11-9--------11-11-------
G|-----------------------------------------------
D|-----------------------------------------------
A|-----------------------------------------------
E|-----------------------------------------------
tabs and chords, guitar tabs, music contests, music covers, songsterr, reverbnation, renditions, tabulature, bollywood chords, ultimate guitar, yousician, guitar lessons, torrins, fender, gibson, acoustic guitar, electric guitar, youtube covers, gootar, guitar tuner, A-Z tabs, 911 tabs