Guitar Tabs for Badnaamiyan - Hate Story Iv Tabs

(/) Slide Up  (\) Slide Down  (h) Hammer On  (p) Pull Off  (b) Bend (r) Release (v) Vibrato (x) Muted

Tabs for Song : Badnaamiyan

Intro
E|-----------------------------------------------------------------------------------4-----
B|---4/6--4--------4--------------------------------4---4/6--4--------4-----------4-----6--
G|-----------6--6-----5---5/6--5--------------3--6--------------6--6-----5---5/6-----------
D|---------------------------------6\4--3--6-----------------------------------------------
A|-----------------------------------------------------------------------------------------
E|-----------------------------------------------------------------------------------------

Zindagani ke lamhon ko tere naam kar diya
E|--9--8--9--9--8--9--9--9--9--11-9--8-----8---8h9--8--8--
B|--------------------------------------11----------------
G|--------------------------------------------------------
D|--------------------------------------------------------
A|--------------------------------------------------------
E|--------------------------------------------------------

Zindagani ke lamhon ko tere naam kar diya
E|--9--8--9--9--8--9--9--9--9--11-9--8-----8---8h9--8--8--
B|--------------------------------------11----------------
G|--------------------------------------------------------
D|--------------------------------------------------------
A|--------------------------------------------------------
E|--------------------------------------------------------

Khud ko teri hi khatir badnaam kar diya
E|--------8--8-----8--8--8--8--9--11-9--8-----
B|--9--9--------11-------------------------11-
G|--------------------------------------------
D|--------------------------------------------
A|--------------------------------------------
E|--------------------------------------------

Badnaamiyan mili, tanhaiyaan badhi
E|--------8-----8--9--8--8--------------------------------
B|--9--11----11-------------11-9--7--7--9--11-9--11-9--11-
G|--------------------------------------------------------
D|--------------------------------------------------------
A|--------------------------------------------------------
E|--------------------------------------------------------

Badnaamiyan mili, tanhaiyaan badhi
E|--------8-----8--9--8--8--------------------------------
B|--9--11----11-------------11-9--7--7--11-9--7--6--6--6--
G|--------------------------------------------------------
D|--------------------------------------------------------
A|--------------------------------------------------------
E|--------------------------------------------------------

Intro
E|-----------------------------------------------------------------------------------4-----
B|---4/6--4--------4--------------------------------4---4/6--4--------4-----------4-----6--
G|-----------6--6-----5---5/6--5--------------3--6--------------6--6-----5---5/6-----------
D|---------------------------------6\4--3--6-----------------------------------------------
A|-----------------------------------------------------------------------------------------
E|-----------------------------------------------------------------------------------------

Har pal yeh dil yaad tujhe karta rehta hai Har pal tere sapne ye dekha karta hai
E|--9--6--6--9--6--6--6--6--6--6--8---9/11-8--6--8--6--4--4--6--8--8--6--4--------6-----------------
B|--------------------------------------------------------------------------7--7-----9--7--9--7--6--
G|--------------------------------------------------------------------------------------------------
D|--------------------------------------------------------------------------------------------------
A|--------------------------------------------------------------------------------------------------
E|--------------------------------------------------------------------------------------------------

Maana tumne raaste apne badal diye Yeh bechara beete kal mein hi rehta hai
E|--9--6--6--9--6--6--6--6--6--8---9/11--8p6--6--8--6--4--4--6--8--8--6--4--------6-----------------
B|--------------------------------------------------------------------------7--7-----9--7--9--7--6--
G|--------------------------------------------------------------------------------------------------
D|--------------------------------------------------------------------------------------------------
A|--------------------------------------------------------------------------------------------------
E|--------------------------------------------------------------------------------------------------

Aakhiri saans ko bhi tere naam kar diya
E|--9--8--9--9--8--9--9--9--11-9--8-----8---8h9--8--8--
B|-----------------------------------11----------------
G|-----------------------------------------------------
D|-----------------------------------------------------
A|-----------------------------------------------------
E|-----------------------------------------------------

Aakhiri saans ko bhi tere naam kar diya
E|--9--8--9--9--8--9--9--11/13-11-9--8-----8---8h9--8--8--
B|--------------------------------------11----------------
G|--------------------------------------------------------
D|--------------------------------------------------------
A|--------------------------------------------------------
E|--------------------------------------------------------

Khud ko teri hi khatir badnaam kar diya
E|--------8--8-----8--8--8--8--9--11-9--8-----
B|--9--9--------11-------------------------11-
G|--------------------------------------------
D|--------------------------------------------
A|--------------------------------------------
E|--------------------------------------------

Badnaamiyan mili, tanhaiyaan badhi
E|--------8-----8--9--8--8--------------------------------
B|--9--11----11-------------11-9--7--7--9--11-9--11-9--11-
G|--------------------------------------------------------
D|--------------------------------------------------------
A|--------------------------------------------------------
E|--------------------------------------------------------

Badnaamiyan mili, tanhaiyaan badhi
E|--------8-----8--9--8--8--------------------------------
B|--9--11----11-------------11-9--7--7--11-9--7--6--6--6--
G|--------------------------------------------------------
D|--------------------------------------------------------
A|--------------------------------------------------------
E|--------------------------------------------------------


tabs and chords, guitar tabs, music contests, music covers, songsterr, reverbnation, renditions, tabulature, bollywood chords, ultimate guitar, yousician, guitar lessons, torrins, fender, gibson, acoustic guitar, electric guitar, youtube covers, gootar, guitar tuner, A-Z tabs, 911 tabs