Guitar Tabs for Aashiq Banaya Aapne - Hate Story Iv Tabs

(/) Slide Up  (\) Slide Down  (h) Hammer On  (p) Pull Off  (b) Bend (r) Release (v) Vibrato (x) Muted

Tabs for Song : Aashiq Banaya Aapne

Intro
E|-----------------10-9--------------------12-9--------
B|--10-12-12-12-12-------10-10-12-12-12-12-------12-10-
G|-----------------------------------------------------
D|-----------------------------------------------------
A|-----------------------------------------------------
E|-----------------------------------------------------

Intro
E|-----------------10-9-----------------------------7--------
B|--10-12-12-12-12-------12-10-12-12-12-12-12-10-8-----10-7--
G|-----------------------------------------------------------
D|-----------------------------------------------------------
A|-----------------------------------------------------------
E|-----------------------------------------------------------

Mere bin sooni hain dil ki raahein Mere bin pyaasi sabki nigahein Ohoo...
E|-----------9--9--9--9--------------------9--9--9--9------------9/10\9--
B|--10-10-12-------------12-12-12-10-10-12-------------12-12-12----------
G|-----------------------------------------------------------------------
D|-----------------------------------------------------------------------
A|-----------------------------------------------------------------------
E|-----------------------------------------------------------------------

Mere bin sooni hain dil ki raahein Mere bin pyaasi sabki nigahein
E|-----------9--9--9--9--------------------9--9--9--9-----------
B|--10-10-12-------------12-12-12-10-10-12-------------12-12-12-
G|--------------------------------------------------------------
D|--------------------------------------------------------------
A|--------------------------------------------------------------
E|--------------------------------------------------------------

Jo mile bole bhar ke woh aahein Suniye
E|-----------9--9--9--9--------------------
B|--10-10-12-------------12-12-12-10-10-12-
G|-----------------------------------------
D|-----------------------------------------
A|-----------------------------------------
E|-----------------------------------------

Aashiq banaya… Aashiq banaya…
E|--------------10-9--------------------12-9--------
B|--12-12-12-12-------12-10-12-12-12-12-------12-10-
G|--------------------------------------------------
D|--------------------------------------------------
A|--------------------------------------------------
E|--------------------------------------------------

Aashiq banaya aapne
E|--------------10-9--------------
B|--12-12-12-12-------12-10-12-12-
G|--------------------------------
D|--------------------------------
A|--------------------------------
E|--------------------------------
tabs and chords, guitar tabs, music transcription, music technology, deep learning, music information retrieval, transcribe into tabs & chords, chordify, music renditions, songsterr, reverbnation, tabulature, bollywood chords, ultimate guitar, yousician, guitar lessons, acoustic guitar, electric guitar, guitar tuner, 911 tabs