Guitar Tabs for Boond Boond - Hate Story Iv Tabs

(/) Slide Up  (\) Slide Down  (h) Hammer On  (p) Pull Off  (b) Bend (r) Release (v) Vibrato (x) Muted

Tabs for Song : Boond Boond

Intro
E|--------------------12-10-12-12/13-12-10-12-------10-------10-7-----7--------7--12-
B|--13-12-12/13-10-13-------------------------12-13----12----------8-----9-----------
G|--------------------------------------------------------12----------------9--------
D|-----------------------------------------------------------------------------------
A|-----------------------------------------------------------------------------------
E|-----------------------------------------------------------------------------------

Boond boond mein, Gum sa hai
E|--------------------------------------
B|--10-10-12-12-13----------------------
G|------------------9/10-10-12-10-9--10-
D|--------------------------------------
A|--------------------------------------
E|--------------------------------------

Ye saavan bhi toh, Tum sa hai
E|-----------------------------------------
B|-----------------10/12-------------------
G|--10-10-12-12-12-------10-10-10-12-10-9--
D|-----------------------------------------
A|-----------------------------------------
E|-----------------------------------------

Ikk ajnabi ehsaas hai Kuch hai naya
E|-----12-12-10-8--8--7--7--8--8-----12-12-10-8--8--7--7--8--8--
B|--------------------------------------------------------------
G|--9-----------------------------9-----------------------------
D|--------------------------------------------------------------
A|--------------------------------------------------------------
E|--------------------------------------------------------------

Kusoor ye saara… Mausam ka hai
E|-----------------------------------------------------
B|--10-12-10-12-10-12-10-12-10-12----------------------
G|--------------------------------10-10-10-10-12-10-9--
D|-----------------------------------------------------
A|-----------------------------------------------------
E|-----------------------------------------------------

Again Repeat Like Part 1..
tabs and chords, guitar tabs, music transcription, music technology, deep learning, music information retrieval, transcribe into tabs & chords, chordify, music renditions, songsterr, reverbnation, tabulature, bollywood chords, ultimate guitar, yousician, guitar lessons, acoustic guitar, electric guitar, guitar tuner, 911 tabs