Guitar Tabs for Tujhme Rab Dikhta

tu he toh jannat meri...
E|--------------------------------------------------------------------
B|--6--8---6h-8p6--------6---8/9--8-----8-----8---8/9---9\6--6--6-----
G|-----------------8--------------------------------------------------
D|--------------------------------------------------------------------
A|--------------------------------------------------------------------
E|--------------------------------------------------------------------


tu he toh mannat meri...
E|-----------------------------------------------------------------------
B|--6--8---6h-8p6--------6---8/9--8-----8-----8---8/13----13\6--6--6-----
G|-----------------8-----------------------------------------------------
D|-----------------------------------------------------------------------
A|-----------------------------------------------------------------------
E|-----------------------------------------------------------------------


tu he akhiyon ki...
E|--8--9---9/11-11----9---8\6--8-----8--9---9/11-11----9---8/6--8--
B|-----------------------------------------------------------------
G|-----------------------------------------------------------------
D|-----------------------------------------------------------------
A|-----------------------------------------------------------------
E|-----------------------------------------------------------------


aur kuch na janu me...
E|-----8--9---8p6--6-----6--8---6h-8p6--------------------------------------------
B|--------------------------------------9-----9--8--9--8--9--8---8h-9p8-----6-----
G|--------------------------------------------------------------------------------
D|--------------------------------------------------------------------------------
A|--------------------------------------------------------------------------------
E|--------------------------------------------------------------------------------

tujhme rab dikhta hai
E|-----------------6-----------------------------------------6--------------------------
B|------6/9-----9------9\8--8---6h-8p6------------6/9-----9------9\8--8---8h-9p8--6-----
G|--5-----------------------------------8-----6-----------------------------------------
D|--------------------------------------------------------------------------------------
A|--------------------------------------------------------------------------------------
E|--------------------------------------------------------------------------------------

tujhme rab dikhta hai
E|-----------------6-----------------------------------------6--------------------------
B|------6/9-----9------9\8--8---6h-8p6------------6/9-----9------9\8--8---8h-9p8--6-----
G|--5-----------------------------------8-----6-----------------------------------------
D|--------------------------------------------------------------------------------------
A|--------------------------------------------------------------------------------------
E|--------------------------------------------------------------------------------------

sajde ser jhukta hai...
E|------6/8--8--9---8p6--6---6h-8p6-----------------------6-----------------------
B|--6--------------------------------9--8-----6---8/9--9------9\8--8---8h-9p8--6--
G|--------------------------------------------------------------------------------
D|--------------------------------------------------------------------------------
A|--------------------------------------------------------------------------------
E|--------------------------------------------------------------------------------


tujhme rab dikhta hai...
E|-----------------6--------------------------------------6---6h-8p6--------------------
B|------6/9-----9------9\8--8---6h-8p6------------6/9--9-----------------9---8h-9p8--6--
G|--5-----------------------------------8-----6-----------------------------------------
D|--------------------------------------------------------------------------------------
A|--------------------------------------------------------------------------------------
E|--------------------------------------------------------------------------------------


kaisi hai ye doori...
E|-----8--9--8------8h9--8-----8--9--8------8h9--8--
B|--------------11----------------------11----------
G|--------------------------------------------------
D|--------------------------------------------------
A|--------------------------------------------------
E|--------------------------------------------------

maine nazrose...
E|--8--9--8--8-----8--9--------------------------------------------
B|-----------------------11-11----11-9---8h-9p-8\6--------8--9-----
G|-----------------------------------------------------10----------
D|-----------------------------------------------------------------
A|-----------------------------------------------------------------
E|-----------------------------------------------------------------

kabhi teri khusbu...
E|--8--9--8------8h9--8-----8--9--8------8h9--8--
B|-----------11----------------------11----------
G|-----------------------------------------------
D|-----------------------------------------------
A|-----------------------------------------------
E|-----------------------------------------------

bin maange...
E|--8--9--8--8-----8--9--------------------------------
B|-----------------------11-11----11-9---8h-9p-8\6-----
G|-----------------------------------------------------
D|-----------------------------------------------------
A|-----------------------------------------------------
E|-----------------------------------------------------
tabs and chords, guitar tabs, music transcription, music technology, deep learning, music information retrieval, transcribe into tabs & chords, chordify, music renditions, songsterr, reverbnation, tabulature, bollywood chords, ultimate guitar, yousician, guitar lessons, acoustic guitar, electric guitar, guitar tuner, 911 tabs