Guitar Tabs for Rab Ka Shukrana - Jannat 2 Tabs

(/) Slide Up  (\) Slide Down  (h) Hammer On  (p) Pull Off  (b) Bend (r) Release (v) Vibrato (x) Muted

Tabs for Song : Rab Ka Shukrana

Intro
E|--13-13-14-13-11-11-9--11-13-14-13-11-9--8--9--11-11-9--6--11-11-9--
B|--------------------------------------------------------------------
G|--------------------------------------------------------------------
D|--------------------------------------------------------------------
A|--------------------------------------------------------------------
E|--------------------------------------------------------------------

Intro
E|--13-13-14-13-11-11-9--11-13-14-13-11-9--8--9--11-11-9--6--11-11-8--
B|--------------------------------------------------------------------
G|--------------------------------------------------------------------
D|--------------------------------------------------------------------
A|--------------------------------------------------------------------
E|--------------------------------------------------------------------

Tu hai ab jo baahon mein, Qarar hai Rab Ka Shukrana
E|--------------------8--4--6-----8--4--6--8--6--6--4--4--------------4--6--
B|--6--7--6--7--6--7-----------6--------------------------7--7--6--7--------
G|--------------------------------------------------------------------------
D|--------------------------------------------------------------------------
A|--------------------------------------------------------------------------
E|--------------------------------------------------------------------------

Saanson mein hai nasha, Khumar hai Rab Ka Shukrana
E|-----------8--4--4--11--8p9--4--4--8--6--6--4--4--------------
B|--4--6--4-----------------------------------------7--7--6--6--
G|--------------------------------------------------------------
D|--------------------------------------------------------------
A|--------------------------------------------------------------
E|--------------------------------------------------------------

Tu hi ab mera deen hai, imaan hai Rab Ka Shukrana
E|--------------------8--4--6-----8--4--6--8--6--6--4--4--------------4--6--
B|--6--7--6--7--6--7-----------6--------------------------7--7--6--7--------
G|--------------------------------------------------------------------------
D|--------------------------------------------------------------------------
A|--------------------------------------------------------------------------
E|--------------------------------------------------------------------------

Mera kalma hai tu, Azaan hai Rab Ka Shukrana
E|-----------8--4--4--11--8p9--4--4--8--6--6--4--4-----4--------
B|--4--6--4-----------------------------------------7-----7--6--
G|--------------------------------------------------------------
D|--------------------------------------------------------------
A|--------------------------------------------------------------
E|--------------------------------------------------------------

Tu mila toh sab mila Ab kisi se kya gila 
E|--13-11-11-13-13-11-9---9\6--13-11-11-13-13-11-9--9--13-11-
B|-----------------------------------------------------------
G|-----------------------------------------------------------
D|-----------------------------------------------------------
A|-----------------------------------------------------------
E|-----------------------------------------------------------

Tujhme simtu, aa main bikhru Teri baahon mein
E|--11-11-11-11-11-11-13-11-9--8--8--9--11-14-13-13-14-13-11-9--11-
B|-----------------------------------------------------------------
G|-----------------------------------------------------------------
D|-----------------------------------------------------------------
A|-----------------------------------------------------------------
E|-----------------------------------------------------------------

Tu mila toh sab mila Ab kisi se kya gila 
E|--13-11-11-13-13-11-9---9\6--13-11-11-13-13-11-9--9--13-11-
B|-----------------------------------------------------------
G|-----------------------------------------------------------
D|-----------------------------------------------------------
A|-----------------------------------------------------------
E|-----------------------------------------------------------

Tujhme simtu, aa main bikhru Teri baahon mein fanaa ho jaaun main
E|--11-11-11-11-8--11-11-13-11-9--8--8--9--11-14-13-13-11-13-11-9--8---8\6--6---6/8--9--8--9--8--
B|-----------------------------------------------------------------------------------------------
G|-----------------------------------------------------------------------------------------------
D|-----------------------------------------------------------------------------------------------
A|-----------------------------------------------------------------------------------------------
E|-----------------------------------------------------------------------------------------------

Again Repeat Like Part One.
tabs and chords, guitar tabs, music contests, music covers, songsterr, reverbnation, renditions, tabulature, bollywood chords, ultimate guitar, yousician, guitar lessons, torrins, fender, gibson, acoustic guitar, electric guitar, youtube covers, gootar, guitar tuner, A-Z tabs, 911 tabs