Guitar Tabs for Tujh Mein Rab Dikhta Hai

(/) Slide Up  (\) Slide Down  (h) Hammer On  (p) Pull Off  (b) Bend (r) Release (v) Vibrato (x) Muted


e|--------------------------------------------
b|---8/10-8--8---8h10-8---8/10-8--8---8h10-8--
G|--------------------------------------------
D|--------------------------------------------
A|--------------------------------------------
E|--------------------------------------------


e|-----------------------------------------------
b|--10-11--8/10-10h11-10-8--6--5---5h-6p5--------
g|--------------------------------------------7--
D|-----------------------------------------------
A|-----------------------------------------------
E|-----------------------------------------------


e|--------------------------------8-----------
b|---8/10-8--8---8h10-8---8/10-8------8h10-8--
G|--------------------------------------------
D|--------------------------------------------
A|--------------------------------------------
E|--------------------------------------------


e|-----------------------------------------------
b|--10-11--8/10-10h11-10-8--6--5---5h-6p5--------
g|--------------------------------------------7--
D|-----------------------------------------------
A|-----------------------------------------------
E|-----------------------------------------------


e|--------------------------------------------------------------------
b|--10-11-11/13-11-10-10\8---8/10----10-11/13-13/15-11-10-10\8---8/10-
G|--------------------------------------------------------------------
D|--------------------------------------------------------------------
A|--------------------------------------------------------------------
E|--------------------------------------------------------------------


e|-----------------------------------------------------------------------------------
b|--10-11-13/15-15-17-13-13-11-10-10\8---8\6--10\8---8\6--10\8--6---5h-6p5-----------
g|-----------------------------------------------------------------------------7--5--
D|-----------------------------------------------------------------------------------
A|-----------------------------------------------------------------------------------
E|-----------------------------------------------------------------------------------



e|--------------------------------------------------------
b|-----6---8\6--5---5h-6p5--3-----------6--6--8--5---5\3--
g|-----------------------------5-----3--------------------
d|--7-----------------------------------------------------
A|--------------------------------------------------------
E|--------------------------------------------------------



e|--------------------------------------------------------
b|-----6---8\6--5---5h-6p5--3-----------6--6--8--5---5\3--
g|-----------------------------5-----3--------------------
d|--7-----------------------------------------------------
A|--------------------------------------------------------
E|--------------------------------------------------------




e|-----5---6\5--3--3--------------------------------
b|--3--------------------6--5--3--6--6--8--5--5--3--
g|--------------------------------------------------
D|--------------------------------------------------
A|--------------------------------------------------
E|--------------------------------------------------



e|-----------------------------------------------------------------
b|-----6---8\6--5---5h-6p5--3-----------6--8---8/10-5---5h-6p5--3--
g|-----------------------------5-----3-----------------------------
d|--7--------------------------------------------------------------
A|-----------------------------------------------------------------
E|-----------------------------------------------------------------
Tabs for Song : 
BPM : 200

Song lyrics here
E|--
B|--
G|--
D|--
A|--
E|--

Song lyrics here
E|--
B|--
G|--
D|--
A|--
E|--

Paste any tab in acousterr's tab maker and we'll play it !!!
Now supports capo and sound effects for vibrato/pull-off/hammer/bends/mutes etc !!! Checkout help section
tabs and chords, guitar tabs, music transcription, music technology, deep learning, music information retrieval, transcribe into tabs & chords, chordify, music renditions, songsterr, reverbnation, tabulature, bollywood chords, ultimate guitar, yousician, guitar lessons, acoustic guitar, electric guitar, guitar tuner, 911 tabs