Guitar Tabs for Trainwreck

(/) Slide Up  (\) Slide Down  (h) Hammer On  (p) Pull Off  (b) Bend (r) Release (v) Vibrato (x) Muted

Tabs for Song : 
BPM : 165 
E|--------------------------------------------------------------------
B|--------------------------------------------------------------------
G|--------------------------------------------------------------------
D|--------------------------------------------------------------------
A|--------------------------------------------------------------------
D|--0-----------5-----------0-----------5--------------9-----------5--

E|--------------------------------------------------------------------------------------------------------------------------------------------
B|--------------------------------------------------------------------------------------------------------------------------------------------
G|--------------------------------------------------------------------------------------------------------------------------------------------
D|--------------------------------------------------------------------------------------------------------------------------------------------
A|--------------------------------------------------------------------------------------------------------------------------------------------
D|--0--0--0--0--0--0--0--0--5--5--5--5--5--5--5--5--0--0--0--0--0--0--0--0--5--5--5--5--5--5--5--5--9--9--9--9--9--9--5--5--5--5--5--5--5--5--

E|-----------------------------------------------------
B|-----------------------------------------------------
G|-----------------------------------------------------
D|-----------------------------------------------------
A|-----------------------------------------------------
D|--0--0--0--0--0--0--0--0-----0--0--0--0--0--0--0--0--

E|--------------------------------------------------------------------------------------------------------------------------
B|--------------------------------------------------------------------------------------------------------------------------
G|--------------------------------------------------------------------------------------------------------------------------
D|--------------------------------------------------------------------------------------------------------------------------
A|--------------------------------------------------------------------------------------------------------------------------
D|--0--0--0--0--0--0--0--0--5--5--5--5--5--5--5--5--0--0--0--0--0--0--0--0--5--5--5--5--5--5--5--5--9--9--9--9--9---9\12-5--



tabs and chords, guitar tabs, music transcription, music technology, deep learning, music information retrieval, transcribe into tabs & chords, chordify, music renditions, songsterr, reverbnation, tabulature, bollywood chords, ultimate guitar, yousician, guitar lessons, acoustic guitar, electric guitar, guitar tuner, 911 tabs