Bass Tabs for Tongue Tied

(/) Slide Up  (\) Slide Down  (h) Hammer On  (p) Pull Off  (b) Bend (r) Release (v) Vibrato (x) Muted

Tabs for Song : Tongue Tied

VERSE 1
G|-----------------------------------
D|-----------------------------------
A|------------------------------6/8--
E|--4--4--4---4/8--4--4--4--4--------

G|--------------------------------------------------------------
D|--------------------------------------------------------------
A|--6--6--5--5-----6--6--5--5-----6--6--5--5-----6--6--5--5-----
E|--------------6--------------6--------------6--------------6--

G|-----------------------------------
D|-----------------------------------
A|------------------------------6/8--
E|--4--4--4---4/8--4--4--4--4--------

G|--------------------------------
D|--------------------------------
A|--6--6--5--5-----6--6--5--5-----
E|--------------6--------------6--

G|-----------------------------------
D|-----------------------------------
A|------------------------------6/8--
E|--4--4--4---4/8--4--4--4--4--------

G|--------------------------------
D|--------------------------------
A|--6--6--5--5-----6--6--5--5-----
E|--------------6--------------6--
CHORUS
G|--------------------------------------------------------------
D|--------------------3--0--3--0--1-----1-----1--5--3--5--3--5--
A|--3-----3-----1--1-----------------1-----1--------------------
E|-----3-----3--------------------------------------------------

G|--------------------------------------------------
D|--------------------------------------------------
A|--------------------------------------------------
E|--4--4--6--6--8--8--11-11-4--4--6--6--8--8--11-11-
VERSE 2
G|--------------------------------------------------------------
D|--------------------------------------------------------------
A|--6--6--5--5-----6--6--5--5-----6--6--5--5-----6--6--5--5-----
E|--------------6--------------6--------------6--------------6--

G|-----------------------------------
D|-----------------------------------
A|------------------------------6/8--
E|--4--4--4---4/8--4--4--4--4--------

G|--------------------------------
D|--------------------------------
A|--6--6--5--5-----6--6--5--5-----
E|--------------6--------------6--

G|-----------------------------------
D|-----------------------------------
A|------------------------------6/8--
E|--4--4--4---4/8--4--4--4--4--------

G|--------------------------------
D|--------------------------------
A|--6--6--5--5-----6--6--5--5-----
E|--------------6--------------6--
CHORUS
G|--------------------------------------------------------------
D|--------------------3--0--3--0--1-----1-----1--5--3--5--3--5--
A|--3-----3-----1--1-----------------1-----1--------------------
E|-----3-----3--------------------------------------------------

G|--------------------------------------------------
D|--------------------------------------------------
A|--------------------------------------------------
E|--4--4--6--6--8--8--11-11-4--4--6--6--8--8--11-11-
You can if you want to play this part but its not necessary (the rap starting right after the last part)
G|-------------------------------------------------------------------------------------------------------------------------------------------------------
D|-------------------------------------------------------------------------------------------------------------------------------------------------------
A|--6--6--5--5----6--6--5--5-----6--6--5--5-----6--6--5--5-----6--6--5--5-----6--6--5--5-----6--6--5--5-----6--6--5--5-----6--6--5--5-----6--6--5--5-----
E|--------------6-------------6--------------6--------------6--------------6--------------6--------------6--------------6--------------6--------------6--
dont play for a while and then
CHORUS
G|--------------------------------------------------------------
D|--------------------3--0--3--0--1-----1-----1--5--3--5--3--5--
A|--3-----3-----1--1-----------------1-----1--------------------
E|-----3-----3--------------------------------------------------

G|--------------------------------------------------
D|--------------------------------------------------
A|--------------------------------------------------
E|--4--4--4--4--4--4--4---4/16-16-16-16-16-16-16-16-
BRIDGE
G|-----------3-----5--------------------------
D|--3-----6-----------------1-----3--1--3--1--
A|--------------------3-----------------------
E|--------------------------------------------

G|-----------------------3-----5-------------------------
D|--6--6--8--6--3-----6-----------------1-----3--1--3--1-
A|--------------------------------3----------------------
E|-------------------------------------------------------

G|-----------------------3-----5--------------------------
D|--6--6--8--6--3-----6-----------------1-----3--1--3--1--
A|--------------------------------3-----------------------
E|--------------------------------------------------------
ENDING
G|----------------------------------------
D|--6--6-----8-----3----------------------
A|-----------------------3--3-----5-----6-
E|----------------------------------------

G|--------------------------------------
D|--6--6-----8-----3--------------------
A|--------------------3--3-----5-----6--
E|--------------------------------------

G|--------------------------------------
D|--6--6-----8-----3--------------------
A|--------------------3--3-----5-----6--
E|--------------------------------------

G|--------------------------------------
D|--6--6-----8-----3--------------------
A|--------------------3--3-----5-----6--
E|--------------------------------------
OUTRO
G|----------------------------------
D|----------------------------------
A|--------------------------------6-
E|--4--------1---------1/8----------

G|-----------------------------------
D|-----------------------------------
A|--------------------------------6--
E|--4--------1---------1/8-----------




Paste any tab in acousterr's tab maker and we'll play it !!!
Now supports capo and sound effects for vibrato/pull-off/hammer/bends/mutes etc !!! Checkout help section
tabs and chords, guitar tabs, music transcription, music technology, deep learning, music information retrieval, transcribe into tabs & chords, chordify, music renditions, songsterr, reverbnation, tabulature, bollywood chords, ultimate guitar, yousician, guitar lessons, acoustic guitar, electric guitar, guitar tuner, 911 tabs