Guitar Tabs for To Jaden And Zack

(/) Slide Up  (\) Slide Down  (h) Hammer On  (p) Pull Off  (b) Bend (r) Release (v) Vibrato (x) Muted

Tabs for Song : 
BPM : 210

Song lyrics here 
E|--------------(repeat 4x)----0--------(repeat 4x)-|
B|-----1--------------------------------------------|
G|-----------0-----------------------0--------------|(repeat 2x)
D|--------2-----------------------2-----------------|
A|--3-----------------------3-----------------------|
E|--------------------------------------------------|

E|-----3--------(repeat 4x)----0--------(repeat 4x)----0--------(repeat 4x)-
B|-----------1-----------------------1-----------------------0--------------
G|--------2-----------------------2-----------------------2-----------------
D|--3-----------------------3-----------------------3-----------------------
A|--------------------------------------------------------------------------
E|--------------------------------------------------------------------------

Song lyrics here 
E|--3--------3--0--------0--0--------0-----3-----------3-----------0-----------0-----------0-----------0--------
B|--1--------1--1--------1--0--------0--------1-----------1-----------1-----------1-----------0-----------0-----
G|--2--------2--2--------2--2--------2-----------2-----------2-----------2-----------2-----------2-----------2--
D|--3--------3--3--------3--3--------3--3-----------3-----------3-----------3-----------3-----------3-----------
A|--------------------------------------------------------------------------------------------------------------
E|--------------------------------------------------------------------------------------------------------------

E|--3-----------------------(repeat 4x)----3-----------3-----------3-----------0--------
B|--1-----1--(1)---1-----------------------------------------1-----------1-----------0--
G|--2-----0--(0)---------0-----------------------0--------2-----------2-----------2-----
D|--3-----2--(2)------2-----------------------2-----------------3-----------3-----------
A|--------3--(3)3-----------------------3-----------3-----------------------------------
E|--------------------------------------------------------------------------------------

E|---3p0------0p0-----3--3------3p0-----0--0------0p0-----0--0-----(0)---------------------
B|---1p1------1p0-----1--1------1p1-----1--1------1p0-----0--0-----(0)1-----1--1------1p---
G|---2p2------2p2-----2--2------2p2-----2--2------2p2-----2--2-----(2)0-----0--0------0p0--
D|---3p3------3p3-----3--3------3p3-----3--3------3p3-----3--3-----(3)2-----2--2------2p2--
A|--------------------------------------------------------------------3-----3--3------3p3--
E|-----------------------------------------------------------------------------------------

E|--------------x-----------------------------3--3-----(3)2-----2--3-----3--3--0-----0--0--0-----0--0--
B|--------------x-----------------0-----1v----0--0-----(0)3-----3--1-----1--1--1-----1--1--0-----0--0--
G|-----0--0-----x-----------------0-----2v----0--0-----(0)2-----2--2-----2--2--2-----2--2--2-----2--2--
D|-----2--2-----x--0------0p0-----2-----2v----0--0-----(0)0-----0--3-----3--3--3-----3--3--3-----3--3--
A|-----3--3-----x--2------2p0-----2-----0v----2--2-----(2)---------------------------------------------
E|--------------x--3------3p2-----------------3--3-----(3)---------------------------------------------

E|-----3-----------3-----------0-----------0-----------0-----------0--------0-----3-----------3--------------------------------
B|-----------1-----------1-----------1-----------1-----------0-----------0--0-----------------------------1-----------1--------
G|--------2-----------2-----------2-----------2-----------2-----------2-----2-----------0-----------0-----------0-----------0--
D|--3-----------3-----------3-----------3-----------3-----------3-----------3--------2-----------2-----------2-----------2-----
A|-----------------------------------------------------------------------------3-----------3-----------3-----------3-----------
E|-----------------------------------------------------------------------------------------------------------------------------

E|--3v----------3v----------2v----------2v----------------------------------3v-------3v----0v-
B|--1v----------0v----------3v----------1v----------1v----------0v----------0v-------1v----1v-
G|--2v----------0v----------2v----------2v----------0v----------0v----------0v-------2v----2v-
D|--3v----------0v----------0v----------0v----------2v----------2v----------0v-------3v----3v-
A|--------------2v----------------------------------3v----------2v----------2v----------------
E|--------------3v----------------------------------------------------------3v----------------

E|-----------------3-----------3-----------0-----------0--------0v-
B|-----1-----------------------------1-----------1-----------0--1v-
G|-----------0-----------0--------2-----------2-----------2-----0v-
D|--------2-----------2-----3-----------3-----------3-----------2v-
A|--3-----------3-----------------------------------------------3v-
E|-----------------------------------------------------------------

E|--
B|--
G|--
D|--
A|--
E|--

Use manual mode to free up cursor. Paste any tab in acousterr tab maker and we'll play it !!!
tabs and chords, guitar tabs, music transcription, music technology, deep learning, music information retrieval, transcribe into tabs & chords, chordify, music renditions, songsterr, reverbnation, tabulature, bollywood chords, ultimate guitar, yousician, guitar lessons, acoustic guitar, electric guitar, guitar tuner, 911 tabs