Guitar Tabs for Zack And Jaden 1st

(/) Slide Up  (\) Slide Down  (h) Hammer On  (p) Pull Off  (b) Bend (r) Release (v) Vibrato (x) Muted

Tabs for Song : 
BPM : 200
capo at 2nd fret
Song lyrics here 
D|-----------------------------------------------------0-----------0-----------0-----------0--------
A|-----1-----------1-----------1-----------1--------------------------------------------------------
F|-----------0-----------0-----------0-----------0-----------0-----------0-----------0-----------0--
C|--------2-----------2-----------2-----------2-----------2-----------2-----------2-----------2-----
G|--3-----------3-----------3-----------3-----------3-----------3-----------3-----------3-----------
D|--------------------------------------------------------------------------------------------------

Song lyrics here 
D|-----------------------------------------------------0-----------0-----------0-----------0--------
A|-----1-----------1-----------1-----------1--------------------------------------------------------
F|-----------0-----------0-----------0-----------0-----------0-----------0-----------0-----------0--
C|--------2-----------2-----------2-----------2-----------2-----------2-----------2-----------2-----
G|--3-----------3-----------3-----------3-----------3-----------3-----------3-----------3-----------
D|--------------------------------------------------------------------------------------------------

D|-----3-----------3-----------3-----------3-----------0-----------0-----------0-----------0--------
A|-----------1-----------1-----------1-----------1-----------1-----------1-----------1-----------1--
F|--------2-----------2-----------2-----------2-----------2-----------2-----------2-----------2-----
C|--3-----------3-----------3-----------3-----------3-----------3-----------3-----------3-----------
G|--------------------------------------------------------------------------------------------------
D|--------------------------------------------------------------------------------------------------

D|-----0-----------0-----------0-----------0-----------0-----------0-----------0-----------0--------
A|-----------0-----------0-----------0-----------0-----------1-----------1-----------1-----------1--
F|--------2-----------2-----------2-----------2-----------2-----------2-----------2-----------2-----
C|--3-----------3-----------3-----------3-----------------------3-----------3-----------3-----------
G|--------------------------------------------------3-----------------------------------------------
D|--------------------------------------------------------------------------------------------------

D|--3--------3--0--------0--(0)---3-----------3-----------0-----------0-----------0-----------0--------
A|--1--------1--1--------1--(0)------1-----------1-----------1-----------1-----------0-----------0-----
F|--2--------2--2--------2--(2)---------2-----------2-----------2-----------2-----------2-----------2--
C|--3--------3--3--------3--(3)3-----------3-----------3-----------3-----------3-----------3-----------
G|-----------------------------------------------------------------------------------------------------
D|-----------------------------------------------------------------------------------------------------

D|--3--------------------------------------------------------------0-----------0-----------0-----------0--------
A|--1--1-----1-----1-----------1-----------1-----------1--------------------------------------------------------
F|--2--0-----0-----------0-----------0-----------0-----------0-----------0-----------0-----------0-----------0--
C|--3--2-----2--------2-----------2-----------2-----------2-----------2-----------2-----------2-----------2-----
G|-----3-----3--3-----------3-----------3-----------3-----------3-----------3-----------3-----------3-----------
D|--------------------------------------------------------------------------------------------------------------

D|-----0-----------0-----------0-----------0-----------0-----------0-----------3-----------3--------
A|-----------1-----------1-----------0-----------0-----------1-----------1-----------1-----------1--
F|--------2-----------2-----------2-----------2-----------2-----------2-----------2-----------2-----
C|--------------3-----------3-----------3-----------3-----------3-----------3-----------3-----------
G|--3-----------------------------------------------------------------------------------------------
D|--------------------------------------------------------------------------------------------------

D|--3--3--3------3p0-----0--0--0------0p0-----0--0--0--------------------------------3--3--3-----
A|--1--1--1------1p1-----1--1--1------1p0-----0--0--0-----1------1p------------------0--0--0-----
F|--2--2--2------2p2-----2--2--2------2p2-----2--2--2-----0------0p0-----0--0-----0--0--0--0-----
C|--3--3--3------3p3-----3--3--3------3p3-----3--3--3-----2------2p2-----2--2-----2--0--0--0-----
G|--------------------------------------------------------3------3p3-----3--3-----3--2--2--2-----
D|-----------------------------------------------------------------------------------3--3--3-----

D|--3--2-----2--2--2------2p2-----2--2--2---------------------------5h-7p5  <----(fast)
A|--0--3-----3--3--3------3p1-----1--1--1-----1v----0v-------------------
F|--0--2-----2--2--2------2p2-----2--2--2-----0v----0v-------------------
C|--2-----------------------------------------2v----2v-------------------
G|--3-----------------------------------------3v----2v-------------------
D|-----------------------------------------------------------------------




Use manual mode to free up cursor. Paste any tab in acousterr tab maker and we'll play it !!!




tabs and chords, guitar tabs, music transcription, music technology, deep learning, music information retrieval, transcribe into tabs & chords, chordify, music renditions, songsterr, reverbnation, tabulature, bollywood chords, ultimate guitar, yousician, guitar lessons, acoustic guitar, electric guitar, guitar tuner, 911 tabs