Bass Tabs for Titãs - Homem Primata

BASS TAB
Titãs - Homem Primata

Intro
G|-----------------12-------------------------------------
D|-----------12-14----14-12-------------------------------
A|--12-12/14----------------14-12-12h14-12-10-9--7--5-----
E|--------------------------------------------------------

G|--------------------7--
D|---------------7h9-----
A|---------5h7-----------
E|---5h7--------------


G|--------------------------
D|--------------------------
A|-----5-----5-----5-----5--
E|--3-----3-----3-----3-----

Verse 
G|-----------------------------
D|--------4-----4-----4--------  4x
A|--5--5-----5-----5-----------
E|-----------------------3--5--

Chorus
G|-----------------------------------------------
D|-----4-----4-----4-----------4-----------------
A|--5-----5-----5-----------5-----5--------------
E|--------------------3--5-----------7--5--3--5--

Variation
G|-----------------------------------------------7--
D|-----5--------5-----7--------7-----5-----7--------
A|--------------------------------------------5-----
E|--3-----3--3-----5-----5--5-----3-----5-----------

G|--------------------------------------------
D|--------------------------------------------
A|-----------5--------------5--5--------------
E|--3--5--7-----3--3--5--7--------3--3--5--7--

G|--------------------------------------------------------------------------------------------------
D|--5--5-----5--5-----5-----5--5-----5--5-----5-----------------------------------------------------
A|--------7--------7-----7--------7--------7-----7--5--5-----5--5-----5-----5--5-----5--5-----5-----
E|--------------------------------------------------------7--------7-----7--------7--------7-----7--

G|-----------------------------------------------------------------------------------------------------
D|-----------------------------------------------------------------------------------------------------
A|-----------2--2--------2--1--4--2--2--------2--1--4--2--2--------2--1--4--2--2--------2--1--2--------
E|--3--3--5--------2--3-----------------2--3-----------------2--3-----------------2--3-----------3--5--

Final 
G|--------------------------------------
D|--------------------------------------
A|--------5--5-----5-----5-----------5--
E|--3--5--------7-----7-----7--3--5-----





-
tabs and chords, guitar tabs, music transcription, music technology, deep learning, music information retrieval, transcribe into tabs & chords, chordify, music renditions, songsterr, reverbnation, tabulature, bollywood chords, ultimate guitar, yousician, guitar lessons, acoustic guitar, electric guitar, guitar tuner, 911 tabs