Ukulele Tabs for Senorita Ukulele Fingerstyle

I love it when you call me señorita
A|--2--3--2--0--2--3-----0-----------3--2-----------
E|-----------------0-----------0-----0--------3-----
C|-----------------0-----------------0--------------
G|-----------------2--------------------------------

I wish I could pretend I didn't need ya
A|-----3--2--0--2--3-----------------3--2-----------
E|--3--------------0-----3-----0-----0--------3-----
C|-----------------0-----------------0--------------
G|-----------------0-----------------0--------------

But every touch is ooh la la la
It's true, la la la
A|-----3--2--0-----0-----3--3--3-----0--0--0-----3--3--3-----
E|--3-----------3--1-----------------1--1--1-----------------
C|-----------------0-----------------0--0--0-----------------
G|-----------------2-----------------2--2--2-----------------

Ooh, I should be running
Ooh, you keep me coming for you
A|---2/3--3--2--3---2h-3p2------2h3--3--2--3---2h-3p2--0--------0--------
E|---3----------------------3---3-------------------------3-----0--------
C|---4--------------------------2-------------------------------0--------
G|------------------------------0-------------------------------2--------

Land in Miami
The air was hot from summer rain
A|--7--5--7---5h-7p5--3-----7--5--7---5h-7p5--3-----3--2--0-----
E|--0-----------------------0-----------------------------------
C|--0-----------------------0-----------------------------------
G|--------------------------------------------------------------

Sweat dripping off me
Before I even knew her name, la la la
A|--7--5--7---5h-7p5--3-----7--5--7---7/8--7--5--3--0-----7--7--7-----
E|--0-----------------------0-----------------------1-----------------
C|--0-----------------------0-----------------------0-----------------
G|--0-----------------------0-----------------------------------------

It felt like ooh la la la
A|-----3--------------5--5--5-----5--3--2--3--2--0--2--
E|-----3--7--5--3-----3-----------3--------------------
C|-----4--------------4-----------2--------------------
G|-----------------------------------------------------


I love it when you call me señorita
A|--3-----0-----------3--2-----------
E|--0-----------0-----0--------3-----
C|--0-----------------0--------------
G|--2--------------------------------
tabs and chords, guitar tabs, music transcription, music technology, deep learning, music information retrieval, transcribe into tabs & chords, chordify, music renditions, songsterr, reverbnation, tabulature, bollywood chords, ultimate guitar, yousician, guitar lessons, acoustic guitar, electric guitar, guitar tuner, 911 tabs