Guitar Tabs for Despacito - Luis Fonsi Tabs

Luis Fonsi - Despacito ft. Daddy Yankee - guitar tabs 

Despacito             Quiero respirar tu cuello despacito
E|--------------------------------------------
B|--------------------------------------------
G|--7-----6-----4-----------4--4--2--4--0-----
D|-----------------4--4--4--------------------
A|--------------------------------------------
E|--------------------------------------------

Deja que te diga cosas al oído
E|-----------------------------
B|-----------------------------
G|--0--0--0--4--4--6--7--------
D|-----------------------7-----
A|-----------------------------
E|-----------------------------

Para que te acuerdes si no estás conmigo
E|--------------------------------
B|-----------------5--5-----------
G|-----------7--7--------6--------
D|--7--7--7-----------------------
A|--------------------------------
E|--------------------------------

Quiero ver bailar tu pelo, quiero ser tu ritmo
E|--------------------------------------
B|--7--5--7--5--7--5--7--7--8--8--------
G|--------------------------------7--7--
D|--------------------------------------
A|--------------------------------------
E|--------------------------------------

Que le enseñes a mi boca
E|-----------5-----------
B|--8--8--8-----8--7-----
G|-----------------------
D|-----------------------
A|-----------------------
E|-----------------------

Tus lugares favoritos 
E|-----------------------
B|--7--7--7--8--7--5-----
G|-----------------------
D|-----------------------
A|-----------------------
E|-----------------------

Déjame sobrepasar tus zonas de peligro
E|--------------------------------------
B|--7--5--7--5--7--5--7--7--8--8--------
G|--------------------------------7--7--
D|--------------------------------------
A|--------------------------------------
E|--------------------------------------

Hasta provocar tus gritos
E|-----------5--------
B|--8--8--8-----8--7--
G|--------------------
D|--------------------
A|--------------------
E|--------------------

Y que olvides tu apellido
E|--------5--------------
B|--7--7-----8--7--5-----
G|--------------------6--
D|-----------------------
A|-----------------------
E|-----------------------
tabs and chords, guitar tabs, music transcription, music technology, deep learning, music information retrieval, transcribe into tabs & chords, chordify, music renditions, songsterr, reverbnation, tabulature, bollywood chords, ultimate guitar, yousician, guitar lessons, acoustic guitar, electric guitar, guitar tuner, 911 tabs