Guitar Tabs for The Scientist - Coldplay

(/) Slide Up  (\) Slide Down  (h) Hammer On  (p) Pull Off  (b) Bend (r) Release (v) Vibrato (x) Muted

Tabs for Song : 
BPM : 200

The Notes Down below are played X4 and they are all of the chorus 
E|-----------------------------------------------------------------
B|-----------------1--------------1--------------------------------
G|--2--2-----0--------2-----0--------2-----0-----2--2--2--2--0-----
D|--------3-----3--------3-----3--------3-----3-----------------3--
A|-----------------------------------------------------------------
E|-----------------------------------------------------------------
Nobuddy Says It was easy...
E|--1--------1--------1-----------------------------------1--------1--------1-----------------------------------------
B|-----3--1-----3--1-----3-----1-----3-----------------------3--1-----3--1-----3-----1--1-----3-----------------------
G|--------------------------2-----2-----2--2--2--2--0-----------------------------2--------2-----2--2--2--2--0--------
D|-----------------------------------------------------3--------------------------------------------------------3--2--
A|--------------------------------------------------------------------------------------------------------------------
E|--------------------------------------------------------------------------------------------------------------------

PIZMON:

CHORDS: G,C,G,EM,C,G,G
STRING:DDDDUDDD...

Paste any tab in acousterr's tab maker and we'll play it !!!
Now supports capo and sound effects for vibrato/pull-off/hammer/bends/mutes etc !!! Checkout help section
tabs and chords, guitar tabs, music transcription, music technology, deep learning, music information retrieval, transcribe into tabs & chords, chordify, music renditions, songsterr, reverbnation, tabulature, bollywood chords, ultimate guitar, yousician, guitar lessons, acoustic guitar, electric guitar, guitar tuner, 911 tabs