Guitar Tabs for Coldplay - The Scientist

Coldplay - The Scientist

CAPO in 1st Fret

Intro

   C#m7              A9
E|--------------------------------------------------------
B|--0-----0-----0-----0-----0-----0-----0-----0-----------
G|--1-----1-----1-----1-----2-----2-----2-----2-----------
D|--2-----2-----2-----2-----2-----2-----2-----2-----------
A|--4--4--4--4--4--4--4--4--0--0--0--0--0--0--0--0--------
E|--------------------------------------------------------

    E                E9                            2x
E|-----------------------------------------------------------
B|--0-----0-----0-----0-----0-----0-----0-----0--------------
G|--1-----1-----1-----1-----1-----1-----1-----1--------------
D|--2-----2-----2-----2-----4-----4-----4-----4--------------
A|-----------------------------------------------------------
E|--0--0--0--0--0--0--0--0--0--0--0--0--0--0--0--0-----------

1st Verse

    C#m7             A9
         Come up to meet you, tell you
E|-----------------------------------------------------
B|--0-----0-----0-----0-----0-----0-----0-----0--------
G|--1-----1-----1-----1-----2-----2-----2-----2--------
D|--2-----2-----2-----2-----2-----2-----2-----2--------
A|--4--4--4--4--4--4--4--4--0--0--0--0--0--0--0--0-----
E|-----------------------------------------------------

     E                           E9
 I'm sorry, you don't know how  lovely you are
E|-----------------------------------------------------------------------
B|--0--------0--------0--------0--------0-----0-----0-----0--------------
G|--1--------1--------1--------1--------1-----1-----1-----1--------------
D|--2--------2--------2--------2--------4-----4-----4-----4--------------
A|-----------------------------------------------------------------------
E|--0--0-----0-----0--0--0-----0--0-----0--0--0--0--0--0--0--0-----------

   C#m7              A9
           I had to find you, tell you 
E|-----------------------------------------------------
B|--0-----0-----0-----0-----0-----0-----0-----0--------
G|--1-----1-----1-----1-----2-----2-----2-----2--------
D|--2-----2-----2-----2-----2-----2-----2-----2--------
A|--4--4--4--4--4--4--4--4--0--0--0--0--0--0--0--0-----
E|-----------------------------------------------------

    E                            E9
 I need you,  tell   you  I'll  set you apart
E|-----------------------------------------------------------------------
B|--0--------0--------0--------0--------0-----0-----0-----0--------------
G|--1--------1--------1--------1--------1-----1-----1-----1--------------
D|--2--------2--------2--------2--------4-----4-----4-----4--------------
A|-----------------------------------------------------------------------
E|--0--0-----0-----0--0--0-----0--0-----0--0--0--0--0--0--0--0-----------

  C#m7               A9
       Tell me your secrets and ask me 
E|-----------------------------------------------------
B|--0-----0-----0-----0-----0-----0-----0-----0--------
G|--1-----1-----1-----1-----2-----2-----2-----2--------
D|--2-----2-----2-----2-----2-----2-----2-----2--------
A|--4--4--4--4--4--4--4--4--0--0--0--0--0--0--0--0-----
E|-----------------------------------------------------

        E                           E9
  your questions,   oh  let's  go  back to the start
E|--------------------------------------------------------------------------
B|-----0--------0--------0--------0--------0-----0-----0-----0--------------
G|-----1--------1--------1--------1--------1-----1-----1-----1--------------
D|-----2--------2--------2--------2--------4-----4-----4-----4--------------
A|--------------------------------------------------------------------------
E|-----0--0-----0-----0--0--0-----0--0-----0--0--0--0--0--0--0--0----------- 

  C#m7               A9
         Running in circles coming up 
E|-----------------------------------------------------
B|--0-----0-----0-----0-----0-----0-----0-----0--------
G|--1-----1-----1-----1-----2-----2-----2-----2--------
D|--2-----2-----2-----2-----2-----2-----2-----2--------
A|--4--4--4--4--4--4--4--4--0--0--0--0--0--0--0--0-----
E|-----------------------------------------------------

        E                           E9
     tails,    heads    on    a   science apart
E|--------------------------------------------------------------------------
B|-----0--------0--------0--------0--------0-----0-----0-----0--------------
G|-----1--------1--------1--------1--------1-----1-----1-----1--------------
D|-----2--------2--------2--------2--------4-----4-----4-----4--------------
A|--------------------------------------------------------------------------
E|-----0--0-----0-----0--0--0-----0--0-----0--0--0--0--0--0--0--0----------- 

Chorus

   A9                     
         Nobody said it was easy
E|-----------------------------------------------------
B|--0-----0-----0-----0-----0-----0-----0-----0--------
G|--2-----2-----2-----2-----2-----2-----2-----2--------
D|--2-----2-----2-----2-----2-----2-----2-----2--------
A|--0--0--0--0--0--0--0--0--0--0--0--0--0--0--0--0-----
E|-----------------------------------------------------

    E                E9             
        It's such a shame for us to part
E|-----------------------------------------------------
B|--0-----0-----0-----0-----0-----0-----0-----0--------
G|--1-----1-----1-----1-----1-----1-----1-----1--------
D|--2-----2-----2-----2-----4-----4-----4-----4--------
A|-----------------------------------------------------
E|--0--0--0--0--0--0--0--0--0--0--0--0--0--0--0--0----- 

    A9
         Nobody said it was easy
E|-----------------------------------------------------
B|--0-----0-----0-----0-----0-----0-----0-----0--------
G|--2-----2-----2-----2-----2-----2-----2-----2--------
D|--2-----2-----2-----2-----2-----2-----2-----2--------
A|--0--0--0--0--0--0--0--0--0--0--0--0--0--0--0--0-----
E|-----------------------------------------------------

    E              E7M(9)         E6     
       No one ever said it would be this
E|-----------------------------------------------------------
B|--0-----0-----0-----0-----7--------7--------5-----5--------
G|--1-----1-----1-----1-----8--------8--------6-----6--------
D|--2-----2-----2-----2-----6--------6--------6-----6--------
A|-----------------------------------------------------------
E|--0--0--0--0--0--0--0--0--0--0-----0--0-----0--0--0--0-----

    B
    hard...             Oh take me back to the start
E|--------------------------2--------
B|--4-----4-----4-----4--5-----------
G|--4-----4-----4-----4--4--4--------
D|--4-----4-----4-----4--4--4--------
A|--2--2--2--2--2--2--2--2--2--------
E|-----------------------------------

Pos-Chorus

    E               A9
E|--------------------------------------------------
B|--0-----0-----0-----0-----0-----0-----0-----0-----
G|--1-----1-----1-----1-----2-----2-----2-----2-----
D|--2-----2-----2-----2-----2-----2-----2-----2-----
A|--------------------------0--0--0--0--0--0--0--0--
E|--0--0--0--0--0--0--0--0--------------------------

    E                E9             
E|-----------------------------------------------------
B|--0-----0-----0-----0-----0-----0-----0-----0--------
G|--1-----1-----1-----1-----1-----1-----1-----1--------
D|--2-----2-----2-----2-----4-----4-----4-----4--------
A|-----------------------------------------------------
E|--0--0--0--0--0--0--0--0--0--0--0--0--0--0--0--0----- 

2nd Verse

    C#m7             A9
         I was just guessing, at numbers and
E|-----------------------------------------------------
B|--0-----0-----0-----0-----0-----0-----0-----0--------
G|--1-----1-----1-----1-----2-----2-----2-----2--------
D|--2-----2-----2-----2-----2-----2-----2-----2--------
A|--4--4--4--4--4--4--4--4--0--0--0--0--0--0--0--0-----
E|-----------------------------------------------------

     E                           E9
  figures,         pulling your puzzles apart
E|-----------------------------------------------------------------
B|--0--------0--------0--------0--------0-----0-----0-----0--------
G|--1--------1--------1--------1--------1-----1-----1-----1--------
D|--2--------2--------2--------2--------4-----4-----4-----4--------
A|-----------------------------------------------------------------
E|--0--0-----0-----0--0--0-----0--0-----0--0--0--0--0--0--0--0-----

   C#m7              A9
       Questions of science, science and
E|-----------------------------------------------------
B|--0-----0-----0-----0-----0-----0-----0-----0--------
G|--1-----1-----1-----1-----2-----2-----2-----2--------
D|--2-----2-----2-----2-----2-----2-----2-----2--------
A|--4--4--4--4--4--4--4--4--0--0--0--0--0--0--0--0-----
E|-----------------------------------------------------

    E                           E9
   progress,  do not speak  as  loud as my heart
E|-----------------------------------------------------------------------
B|--0--------0--------0--------0--------0-----0-----0-----0--------------
G|--1--------1--------1--------1--------1-----1-----1-----1--------------
D|--2--------2--------2--------2--------4-----4-----4-----4--------------
A|-----------------------------------------------------------------------
E|--0--0-----0-----0--0--0-----0--0-----0--0--0--0--0--0--0--0-----------

  C#m7               A9
        Tell me you love me, come back and 
E|-----------------------------------------------------
B|--0-----0-----0-----0-----0-----0-----0-----0--------
G|--1-----1-----1-----1-----2-----2-----2-----2--------
D|--2-----2-----2-----2-----2-----2-----2-----2--------
A|--4--4--4--4--4--4--4--4--0--0--0--0--0--0--0--0-----
E|-----------------------------------------------------

       E                            E9
     haunt me,      oh   and   I   rush to the start
E|-----------------------------------------------------------------------
B|-----0--------0--------0--------0--------0-----0-----0-----0-----------
G|-----1--------1--------1--------1--------1-----1-----1-----1-----------
D|-----2--------2--------2--------2--------4-----4-----4-----4-----------
A|-----------------------------------------------------------------------
E|-----0--0-----0-----0--0--0-----0--0-----0--0--0--0--0--0--0--0-------- 

  C#m7               A9
         Running in circles, chasing
E|-----------------------------------------------------
B|--0-----0-----0-----0-----0-----0-----0-----0--------
G|--1-----1-----1-----1-----2-----2-----2-----2--------
D|--2-----2-----2-----2-----2-----2-----2-----2--------
A|--4--4--4--4--4--4--4--4--0--0--0--0--0--0--0--0-----
E|-----------------------------------------------------

        E               E9
     tails,     coming back as we are
E|--------------------------------------------------------------
B|-----0-----0-----0-----0-----0-----0-----0-----0--------------
G|-----1-----1-----1-----1-----1-----1-----1-----1--------------
D|-----2-----2-----2-----2-----4-----4-----4-----4--------------
A|--------------------------------------------------------------
E|-----0--0--0--0--0--0--0--0--0--0--0--0--0--0--0--0----------- 

Chorus

   A9                     
         Nobody said it was easy
E|-----------------------------------------------------
B|--0-----0-----0-----0-----0-----0-----0-----0--------
G|--2-----2-----2-----2-----2-----2-----2-----2--------
D|--2-----2-----2-----2-----2-----2-----2-----2--------
A|--0--0--0--0--0--0--0--0--0--0--0--0--0--0--0--0-----
E|-----------------------------------------------------

    E                E9             
        It's such a shame for us to part
E|-----------------------------------------------------
B|--0-----0-----0-----0-----0-----0-----0-----0--------
G|--1-----1-----1-----1-----1-----1-----1-----1--------
D|--2-----2-----2-----2-----4-----4-----4-----4--------
A|-----------------------------------------------------
E|--0--0--0--0--0--0--0--0--0--0--0--0--0--0--0--0----- 

    A9
         Nobody said it was easy
E|-----------------------------------------------------
B|--0-----0-----0-----0-----0-----0-----0-----0--------
G|--2-----2-----2-----2-----2-----2-----2-----2--------
D|--2-----2-----2-----2-----2-----2-----2-----2--------
A|--0--0--0--0--0--0--0--0--0--0--0--0--0--0--0--0-----
E|-----------------------------------------------------

    E              E7M(9)            E6     
       No one ever said it would be so
E|--------------------------------------------------------------
B|--0-----0-----0-----0-----7--------7-----------5-----5--------
G|--1-----1-----1-----1-----8--------8-----------6-----6--------
D|--2-----2-----2-----2-----6--------6-----------6-----6--------
A|--------------------------------------------------------------
E|--0--0--0--0--0--0--0--0--0--0-----0--0--------0--0--0--0-----

    B
 hard...                 I'm going back to the start
E|--------------------------2--------
B|--4-----4-----4-----4--5-----------
G|--4-----4-----4-----4--4--4--------
D|--4-----4-----4-----4--4--4--------
A|--2--2--2--2--2--2--2--2--2--------
E|-----------------------------------

Pos-Chorus

    E               A9
E|--------------------------------------------------
B|--0-----0-----0-----0-----0-----0-----0-----0-----
G|--1-----1-----1-----1-----2-----2-----2-----2-----
D|--2-----2-----2-----2-----2-----2-----2-----2-----
A|--------------------------0--0--0--0--0--0--0--0--
E|--0--0--0--0--0--0--0--0--------------------------

    E                E9             
E|-----------------------------------------------------
B|--0-----0-----0-----0-----0-----0-----0-----0--------
G|--1-----1-----1-----1-----1-----1-----1-----1--------
D|--2-----2-----2-----2-----4-----4-----4-----4--------
A|-----------------------------------------------------
E|--0--0--0--0--0--0--0--0--0--0--0--0--0--0--0--0----- 

Final

   C#m7              A9              E                E9
E|--------------------------------------------------------------------------------------------------
B|--0-----0-----0-----0-----0-----0-----0-----0-----0-----0-----0-----0-----0-----0-----0-----0-----
G|--1-----1-----1-----1-----2-----2-----2-----2-----1-----1-----1-----1-----1-----1-----1-----1-----
D|--2-----2-----2-----2-----2-----2-----2-----2-----2-----2-----2-----2-----4-----4-----4-----4-----
A|--4--4--4--4--4--4--4--4--0--0--0--0--0--0--0--0--------------------------------------------------
E|--------------------------------------------------0--0--0--0--0--0--0--0--0--0--0--0--0--0--0--0--

   C#m7              A9              E                E9
                Oh uhhh  uh uh  uh uh
E|--------------------------------------------------------------------------------------------------
B|--0-----0-----0-----0-----0-----0-----0-----0-----0-----0-----0-----0-----0-----0-----0-----0-----
G|--1-----1-----1-----1-----2-----2-----2-----2-----1-----1-----1-----1-----1-----1-----1-----1-----
D|--2-----2-----2-----2-----2-----2-----2-----2-----2-----2-----2-----2-----4-----4-----4-----4-----
A|--4--4--4--4--4--4--4--4--0--0--0--0--0--0--0--0--------------------------------------------------
E|--------------------------------------------------0--0--0--0--0--0--0--0--0--0--0--0--0--0--0--0--
 
   C#m7              A9              E                E9
                Oh uhhh  uh uh  uh uh
E|--------------------------------------------------------------------------------------------------
B|--0-----0-----0-----0-----0-----0-----0-----0-----0-----0-----0-----0-----0-----0-----0-----0-----
G|--1-----1-----1-----1-----2-----2-----2-----2-----1-----1-----1-----1-----1-----1-----1-----1-----
D|--2-----2-----2-----2-----2-----2-----2-----2-----2-----2-----2-----2-----4-----4-----4-----4-----
A|--4--4--4--4--4--4--4--4--0--0--0--0--0--0--0--0--------------------------------------------------
E|--------------------------------------------------0--0--0--0--0--0--0--0--0--0--0--0--0--0--0--0--

   C#m7              A9              E                E9
                Oh uhhh  uh uh  uh uh
E|--------------------------------------------------------------------------------------------------
B|--0-----0-----0-----0-----0-----0-----0-----0-----0-----0-----0-----0-----0-----0-----0-----0-----
G|--1-----1-----1-----1-----2-----2-----2-----2-----1-----1-----1-----1-----1-----1-----1-----1-----
D|--2-----2-----2-----2-----2-----2-----2-----2-----2-----2-----2-----2-----4-----4-----4-----4-----
A|--4--4--4--4--4--4--4--4--0--0--0--0--0--0--0--0--------------------------------------------------
E|--------------------------------------------------0--0--0--0--0--0--0--0--0--0--0--0--0--0--0--0--

   C#m7     A9              E
         Oh uhhh  uh uh  uh uh
E|--------------------------0--
B|--0--------0--------------0--
G|--1--------2--------------1--
D|--2--------2--------------2--
A|--4--------0--------------2--
E|--------------------------0--
tabs and chords, guitar tabs, music transcription, music technology, deep learning, music information retrieval, transcribe into tabs & chords, chordify, music renditions, songsterr, reverbnation, tabulature, bollywood chords, ultimate guitar, yousician, guitar lessons, acoustic guitar, electric guitar, guitar tuner, 911 tabs