Guitar Tabs for Coldplay Scientist

(/) Slide Up  (\) Slide Down  (h) Hammer On  (p) Pull Off  (b) Bend (r) Release (v) Vibrato (x) Muted

Tabs & Chords

Check Track 2 for Chord Positions 

    Dm                D     A# Gm       F                          C              Dm          
E|--------------------------------------------------------------------------------------------
B|-----------------1-----------------1-----------------------------------------------------1--
G|--2--2-----0--------2--------0--------2--------0-----2-----2--2--2-----0-----------0--------
D|--------3-----3-----------3-----3-----------3-----3-----------------------3-----3-----3-----
A|--------------------------------------------------------------------------------------------
E|--------------------------------------------------------------------------------------------

    D     A# Gm       F                       C     F  Dm                D     A# Gm       F  
E|--------------------------------------------------------------------------------------------
B|-----------------1--------------------------------------------------1-----------------1-----
G|--2--------0--------2--------0-----2--2--2--2--0--------------0--------2--------0--------2--
D|--------3-----3-----------3-----3-----------------3--0--0--3-----3-----------3-----3--------
A|--------------------------------------------------------------------------------------------
E|--------------------------------------------------------------------------------------------

                            C           Dm             D     A# Gm       F                       
E|-----------------------------------------------------------------------------------------------
B|--------------------------------------------------1-----------------1--------------------------
G|--------0-----2-----2--2--2--0--------------0--------2--------0--------2--------0-----2-----2--
D|-----3-----3--------------------3-----0--3-----3-----------3-----3-----------3-----3-----------
A|-----------------------------------------------------------------------------------------------
E|-----------------------------------------------------------------------------------------------

    C              Dm                A#             F        C                 F     Dm       
E|--------------------1--------1-----------1--------------------------------------------1-----
B|-----------------------3--1--------3--1-----3--------1-----3-----------------------------3--
G|--2--2--0-----------------------------------------2-----2-----2--2--2--2--0-----------------
D|-----------3-----0-----------------------------------------------------------3-----0--------
A|--------------------------------------------------------------------------------------------
E|--------------------------------------------------------------------------------------------

          A#             F           C                                                     F  
E|-----1--------1-----------------------------------------------------------------------------
B|--1-----3--1-----3-----------1--------------------------------------------------------------
G|-----------------------2--------2--2--2--2--2--0--------------------3--3-----3--3--3--3--2--
D|--------------------------------------------------3--------2--0-----------------------------
A|--------------------------------------------------------3--------3--------------------------
E|--------------------------------------------------------------------------------------------

Guitar Tabs for Coldplay Scientist






    Dm                      A# Gm       F                          C              Dm          
E|--1-----------------------1--3--------1--------------------------0--------------1-----------
B|--3-----------------------3--3--------1--------------------------1--------------3-----------
G|--2-----------------------3--3--------2--------------------------0--------------2-----------
D|--0-----------------------3--5--------3--------------------------2--------------0-----------
A|--------------------------1--5--------3--------------------------3--------------------------
E|-----------------------------3--------1-----------------------------------------------------

          A# Gm       F                       C     F  Dm                      A# Gm       F  
E|--------1--3--------1-----------------------0-----1--1-----------------------1--3--------1--
B|--------3--3--------1-----------------------1-----1--3-----------------------3--3--------1--
G|--------3--3--------2-----------------------0-----2--2-----------------------3--3--------2--
D|--------3--5--------3-----------------------2-----3--0-----------------------3--5--------3--
A|--------1--5--------3-----------------------3-----3--------------------------1--5--------3--
E|-----------3--------1-----------------------------1-----------------------------3--------1--

                            C           Dm                   A# Gm       F                       
E|--------------------------0-----------1--------------------1--3--------1-----------------------
B|--------------------------1-----------3--------------------3--3--------1-----------------------
G|--------------------------0-----------2--------------------3--3--------2-----------------------
D|--------------------------2-----------0--------------------3--5--------3-----------------------
A|--------------------------3--------------------------------1--5--------3-----------------------
E|--------------------------------------------------------------3--------1-----------------------

    C              Dm                A#             F        C                 F     Dm       
E|--0--------------1-----------------1--------------1--------0-----------------1-----1--------
B|--1--------------3-----------------3--------------1--------1-----------------1-----3--------
G|--0--------------2-----------------3--------------2--------0-----------------2-----2--------
D|--2--------------0-----------------3--------------3--------2-----------------3-----0--------
A|--3--------------------------------1--------------3--------3-----------------3--------------
E|--------------------------------------------------1--------------------------1--------------

          A#             F           C                                                     F  
E|--------1--------------1-----------0-----------------------------------------------------1--
B|--------3--------------1-----------1-----------------------------------------------------1--
G|--------3--------------2-----------0-----------------------------------------------------2--
D|--------3--------------3-----------2-----------------------------------------------------3--
A|--------1--------------3-----------3-----------------------------------------------------3--
E|-----------------------1-----------------------------------------------------------------1--

tabs and chords, guitar tabs, music transcription, music technology, deep learning, music information retrieval, transcribe into tabs & chords, chordify, music renditions, songsterr, reverbnation, tabulature, bollywood chords, ultimate guitar, yousician, guitar lessons, acoustic guitar, electric guitar, guitar tuner, 911 tabs