Bass Tabs for Coldplay - The Scientist

Coldplay - The Scientist

Verse
G|--------------------------------------------------------------------------------------------------
D|--------------------------------------------------------------------------------------------------
A|--5--5--5--5--5--5--5--5--------------------------8--8--8--8--8--8--8--8--8--8--8--8--8--8--8--8--
E|--------------------------6--6--6--6--6--6--6--6--------------------------------------------------

Chorus
G|--------------------------------------------------------------------------------------
D|--------------------------------------------------------------------------------------
A|--------------------------------------------------8--8--8--8--8--8--8--8--8--8--8--8--
E|--6--6--6--6--6--6--6--6--6--6--6--6--6--6--6--6--------------------------------------

Chorus Final Note
G|-----------------------------------------
D|-----------------------------------------
A|--3--3--3--3--3--3--3--3--3--3--3--3--3--
E|-----------------------------------------

After Chorus 
G|--------------------------------------------------------------------------------------------------
D|--------------------------------------------------------------------------------------------------
A|--------------------------1--1--1--1--1--1--1--1--------------------------------------------------
E|--1--1--1--1--1--1--1--1--------------------------1--1--1--1--1--1--1--1--1--1--1--1--1--1--1--1--

Final 

G|-----------------------
D|-----------------------
A|--5-----------------8--
E|-----------6-----------


tabs and chords, guitar tabs, music contests, music covers, songsterr, reverbnation, renditions, tabulature, bollywood chords, ultimate guitar, yousician, guitar lessons, torrins, fender, gibson, acoustic guitar, electric guitar, youtube covers, gootar, guitar tuner, A-Z tabs, 911 tabs