Bass Tabs for The Beatles - Please Please Me

The Beatles - Please Please Me 

Intro
G|--------------------------------------------
D|--------------------------------------------
A|--7--7--7--7--7--7--7--7--7--7--7--7--7--7--
E|--------------------------------------------

Verse
G|--------------------------------------------------------------------------
D|--------------------------------------7--7--7-----------5--5--7--7--9--9--
A|--7--7--7--7--7--7--7--7--7--7--7--7-----------7--7--7--------------------
E|--------------------------------------------------------------------------

G|-----------------------------------------------------------9--9--------
D|-----------------------------------7--7--7-----------------------9--9--
A|--7--7--7--7--7--7--7--7--7--7--7-----------7--7-----7--7--------------
E|-----------------------------------------------------------------------

Chorus
G|-----------------------------------------------------
D|--7-----7--6--4-----4-----4-----6-----6-----7-----7--
A|-----7-----------4-----4-----4-----4-----7-----7-----
E|-----------------------------------------------------

G|--------------------------------------------------
D|--------------------------7--7--7--9--9--9--9-----
A|--7--7--7--7--7--7--7--7-----------------------7--
E|--------------------------------------------------

Bridge
G|--------------------------------------------------
D|--7-----------9--7--6--------6--9--6-----6--9--6--
A|-----9--7--------------9--7-----------7-----------
E|-----------9--------------------------------------

G|--------------------------------------------------------------------------------
D|--7-----------9--7--6--------------7--7--7--9--9--9-----------7--7--7--9--9--9--
A|-----9--7--------------9--7--7--7--------------------7--7--7--------------------
E|-----------9--------------------------------------------------------------------

Ending
G|-----------------
D|-----5-----------
A|--7-----------7--
E|--------8--7-----
tabs and chords, guitar tabs, music transcription, music technology, deep learning, music information retrieval, transcribe into tabs & chords, chordify, music renditions, songsterr, reverbnation, tabulature, bollywood chords, ultimate guitar, yousician, guitar lessons, acoustic guitar, electric guitar, guitar tuner, 911 tabs