Guitar Tabs for The Beatles - Michelle

The Beatles - Michelle

CAPO at 5th Fret

Intro
E|--------3--------3--------3--------3--------3--1-----2--3--3--3--
B|-----4--------4--------4--------4--------4-----1--4--2--3--3--3--
G|--5--------4--------3--------2--------1--------------------------
D|-----------------------------------------------------------------
A|-----------------------------------------------------------------
E|-----------------------------------------------------------------

Verse

(C)  (C/G)                     
Michelle 

(Fm7/C) (Fm7)
Ma belle 

(B)  (B/F)               (F#°)     (A°)    (G)
These are words that go together well 

(F#°)    (G)
My Michelle

2nd Verse

(C)  (C/G)                    
Michelle 

(Fm7/C) (Fm7)
Ma belle 

(B)  (B/F)                (F#°)     (A°)     (G)
Sont des mots qui vont très bien ensemble

 (F#°)        (G)
Très bien ensemble

Chorus

(Cm)                                                                   
I love you, I love you, I love you 

(Eb7)                   (G#)
that's all I want to say

(G7)             (Cm)
until I find a way

                                         
   I will say the only words I know that you'll understand
E|-----3-----3-----3-----3-----3--1-----2-----3--3--3--
B|-----4-----4-----4-----4-----4--1--4--2-----3--3--3--
G|--5-----4-----3-----2-----1-----1--------------------
D|-----------------------------------------------------
A|-----------------------------------------------------
E|-----------------------------------------------------

3rd Verse

(C)  (C/G)                     
Michelle 

(Fm7/C) (Fm7)
Ma belle 

(B)  (B/F)                (F#°)     (A°)       (G)
Sont des mots qui vont très bien ensemble

 (F#°)        (G)
Très bien ensemble

2nd Chorus

(Cm)                                                                   
I need to, I need to, I need to 

(Eb7)                   (G#)
I need to make you see

(G7)             (Cm)
What you mean to me
                                      
  Until I do I'm hoping you will know what I mean
E|-----3-----3-----3-----3-----3--1-----2-----3--3--3--
B|-----4-----4-----4-----4-----4--1--4--2-----3--3--3--
G|--5-----4-----3-----2-----1-----1--------------------
D|-----------------------------------------------------
A|-----------------------------------------------------
E|-----------------------------------------------------

Guitar Solo Rhythm

(C)  (C/G)  (Fm7/C) (Fm7) 
I love you

(B)  (B/F)  (F#°) (A°)  (G) (F#°) (G)

Guitar Solo Lead

E|--------------------------------------------------------
B|--------------------------------------------------------
G|--------------------------------------------------------
D|--------------2-----3--5--6-----1--0-----0--1--3--------
A|--3-----3--5--------------------------------------1--3--
E|--------------------------------------------------------

E|--------------------------------------------------
B|--------------------------------------------------
G|--------------------------------------------------
D|-----0--1--------------1--------------------------
A|--3--------0--2-----0-----3--2--------2--3--5--6--
E|--------------------------------3--5--------------

3rd Chorus

(Cm)                                                                   
I want you, I want you, I want you

(Eb7)                   (G#)
I think you know by now

(G7)             (Cm)
I'll get to you somehow
                                      
    Until I do I'm telling you so you'll understand
E|-----3-----3-----3-----3-----3--1-----2-----3--3--3--
B|-----4-----4-----4-----4-----4--1--4--2-----3--3--3--
G|--5-----4-----3-----2-----1-----1--------------------
D|-----------------------------------------------------
A|-----------------------------------------------------
E|-----------------------------------------------------

Last Verse

(C)  (C/G)                    
Michelle 

(Fm7/C) (Fm7)
Ma belle 

(B)  (B/F)                (F#°)     (A°)      (G)
Sont des mots qui vont très bien ensemble

 (F#°)        (G)
Très bien ensemble

I will say the only words I know that you'll understand, my Michelle
E|-----3-----3-----3-----3-----3--1-----2-----3--3--3--
B|-----4-----4-----4-----4-----4--1--4--2-----3--3--3--
G|--5-----4-----3-----2-----1-----1--------------------
D|-----------------------------------------------------
A|-----------------------------------------------------
E|-----------------------------------------------------

Guitar Solo Rhythm End

(C)  (C/G)  (Fm7/C) (Fm7) 
                             2x
(B)  (B/F)  (F#°) (A°)  (G) (F#°) (G)

Guitar Solo Lead End

E|--------------------------------------------------------
B|--------------------------------------------------------
G|--------------------------------------------------------
D|--------------2-----3--5--6-----1--0-----0--1--3--------
A|--3-----3--5--------------------------------------1--3--
E|--------------------------------------------------------

E|--------------------------------------------------
B|--------------------------------------------------
G|--------------------------------------------------
D|-----0--1--------------1--------------------------
A|--3--------0--2-----0-----3--2--------2--3--5--6--
E|--------------------------------3--5--------------

--------------------------------------------------------------------------------------------
Chords

    C    C/G  Fm7/C  Fm7 
E|--0-----0-----1-----1--
B|--1-----1-----1-----1--
G|--0-----0-----2-----2--
D|--2-----2-----1-----1--
A|--3-----------3-----3--
E|--------3-----------1--

    B    B/F   F#°    A° 
E|--0-----0-----2-----5--
B|--2-----2-----1-----4--
G|--2-----2-----2-----5--
D|--2-----2-----1-----4--
A|--0-----0--------------
E|--------0--------------

    G     Cm   Eb7    G#    G7                                                                
E|--3-----3-----------4-----3--
B|--0-----4-----4-----4-----3--
G|--0-----5-----6-----5-----4--
D|--0-----5-----5-----6-----3--
A|--2-----3-----6-----6-----5--
E|--3-----------------4-----3--

tabs and chords, guitar tabs, music transcription, music technology, deep learning, music information retrieval, transcribe into tabs & chords, chordify, music renditions, songsterr, reverbnation, tabulature, bollywood chords, ultimate guitar, yousician, guitar lessons, acoustic guitar, electric guitar, guitar tuner, 911 tabs