Guitar Tabs for The Beatles - Please Please Me

The Beatles - Please Please Me

Intro

(E)

1st Verse

(E)                                (A)   (E)  (G) (A) (B)
Last night I said these words to my girl

(E)                      (A)    (E)  
I know you never even try girl

E|--------------------
B|--------------------
G|--------------------
D|--------2--2--------
A|--------------2--2--
E|--0--0--------------

Chorus

     (A)                                            
Come on (Come on) 

   (F#m) 
Come on (Come on) 
 
    (C#m)
Come on (Come on) 

     (A)
Come on (Come on)

       (E)            (A)      (B)       (E)    
Please please me, oh yeah, like I please you

2nd Verse

(E)                           (A)  (E)  (G) (A) (B)
You don't need me to show the way, love

(E)                     (A)  (E)  
Why do I always have to say, love?

2nd Chorus

    (A)                                            
Come on (Come on) 

    (F#m) 
Come on (Come on) 
 
   (C#m)
Come on (Come on) 

    (A)
Come on (Come on)

         (E)          (A)      (B)       (E)    
Please please me, oh yeah, like I please you

Bridge

(A)
I don't want to sound complaining

(B)                                   (E)        (A)     (E)
But you know there's always rain in my heart (in my heart)

(A)                                 (B)                    (E)
I do all the pleasing with you, it's so hard to reason with you

     (A)        (B)          (E)  
Oh yeah, why do you make me blue?

3rd Verse

(E)                             (A)  (E) (G) (A) (B)
Last night I said these words to my girl

(E)                   (A)  (E)  
I know you never even try girl

E|--------------------
B|--------------------
G|--------------------
D|--------2--2--------
A|--------------2--2--
E|--0--0--------------

Last Chorus

     (A)                                            
Come on (Come on) 

   (F#m) 
Come on (Come on) 
 
   (C#m)
Come on (Come on) 

    (A)
Come on (Come on)

         (E)          (A)      (B)      (E)    
Please please me, oh yeah, like I please you

Ending

    (A)      (B)        (E)                                         
Oh yeah, like I please you

   (A)       (B)       (E)                                           
Oh yeah, like I please you

(E) (G) (C) (B) (E)

----------------------------------------------------------------------------------------
Chords

    A     B     C    C#m 
E|--0-----2-----0-----4--
B|--2-----4-----1-----5--
G|--2-----4-----0-----6--
D|--2-----4-----2-----6--
A|--0-----2-----3-----4--
E|-----------------------

    E    F#m    G
E|--0-----2-----3--
B|--0-----2-----3--
G|--1-----2-----4--
D|--2-----4-----5--
A|--2-----4-----5--
E|--0-----2-----3--
tabs and chords, guitar tabs, music transcription, music technology, deep learning, music information retrieval, transcribe into tabs & chords, chordify, music renditions, songsterr, reverbnation, tabulature, bollywood chords, ultimate guitar, yousician, guitar lessons, acoustic guitar, electric guitar, guitar tuner, 911 tabs