Bass Tabs for The Beatles - Please Mister Postman

The Beatles - Please Mister Postman

Intro
G|--2-----------------------
D|--------------4-----------
A|--------------------------
E|--------------------------

Verse
G|--5--4--3--------------------------------------------------------------------------
D|-----------7--7--------7--7-----7--4--4--------4--4-----4--------------------------
A|-----------------7--7--------7-----------4--4--------4-----5--5--------5--5-----5--
E|-----------------------------------------------------------------5--5--------5-----

G|-----------------------------------------------
D|--------------------------7--7--------7--7-----
A|--7--7--------7--7-----7--------7--7--------7--
E|--------7--7--------7--------------------------


tabs and chords, guitar tabs, music transcription, music technology, deep learning, music information retrieval, transcribe into tabs & chords, chordify, music renditions, songsterr, reverbnation, tabulature, bollywood chords, ultimate guitar, yousician, guitar lessons, acoustic guitar, electric guitar, guitar tuner, 911 tabs