Guitar Tabs for Teruna Dara

(/) Slide Up  (\) Slide Down  (h) Hammer On  (p) Pull Off  (b) Bend (r) Release (v) Vibrato (x) Muted

Tabs for Song : 
BPM : 200

Song lyrics here 
E|--10----8--6--------------------8--10--8---5--6--
B|--------------10-8--7-----7--8----------------8--
G|--------------------7--7--------------------------
D|--------------------------------------------------
A|--------------------------------------------------
E|--------------------------------------------------

E|--8--10-15-15-15-15-15-15-17-18-17----17----17-17-14-14-14-14-------------14-14-18-20-18----18----18-18-18-18----18-
B|--------------------------------------------------------------15-15-15-15-------------------------------------------
G|--------------------------------------------------------------------------------------------------------------------
D|--------------------------------------------------------------------------------------------------------------------
A|--------------------------------------------------------------------------------------------------------------------
E|--------------------------------------------------------------------------------------------------------------------

E|--------------------------------------------------------------------------------------------------------------------------
B|--------------------------------------------------------------------------------------------------------------------------
G|--------------------------------------------------------------------------------------------------------------------------
D|-----------0--2-----0-----0--2-----0-----------------------0--2-----0-----0--2-----0--------------------------------------
A|--------------------------------------3--2--0-----------------------------------------3--2--0--2--3-----2--0--2--3--2--0--
E|--3-----3--------------------------------------3--2-----2-----------------------------------------------------------------

E|-----------------------------------------------------------------------------
B|-----------------------------------------------------------------------------
G|-----------------------------------------------------------------------------
D|-----------------------------------------------------------------------------
A|-----2--3--5--3--2--2--3-----3--3-----5-----5--5-----7-----7--7-----10-12-10-
E|-----------------------------------------------------------------------------

E|-----------10-12----10-------10-12----10----------------------10-12----10----10-12----10----------------------------------------------------10----------10----------------------------------
B|-----------------------------------------13-12-10----------------------------------------13-12-10-12-13-12-10-------12-13-12-10-12-------13----13-12-13----13-12-13-12-10-12-10-------10----
G|--12----12----------------------------------------12-11----11-------------------------------------------------------------------------------------------------------------------11-12----12-
D|--------------------------------------------------------------------------------------------------------------------------------------------------------------------------------------------
A|--------------------------------------------------------------------------------------------------------------------------------------------------------------------------------------------
E|--------------------------------------------------------------------------------------------------------------------------------------------------------------------------------------------

Song lyrics here 
E|--10----------------------10----------------------10----------------------10-------------
B|--10----10----12----------10-----10----7----------10-----8-----10---------10-----8-----10
G|--------9-----12-----------------9-----7-----------------7-----9-----------------7-----9-
D|-----------------------------------------------------------------------------------------
A|-----------------------------------------------------------------------------------------
E|-----------------------------------------------------------------------------------------

E|--------------------------------------------------------------------------------
B|-----------------12----------------------------------------12-------15-12-------
G|--------------12-------14-12-11-12-14-12----------------12----14-12-15-12--12---
D|--12----14-------------------------------------12-14-----------------------12---
A|--------------------------------------------------------------------------------
E|--------------------------------------------------------------------------------

E|--------------------------------------------------------------------------------------------------------------------------------------------------------------------------------------
B|--------------------------------------------------------------------------------------------------------------------------------------------------------------------------------------
G|--------------------------------------------------------------------------------------------------------------------------------------------------------------------------------------
D|--------------2--0-----------2--0-----2--0-----------------2--0-----------2--0-----2--0--------------2-----5-----5-----------2-----5-----5-----------4-----7-----7-----------4-----7--
A|--------------------------------------------------------------------------------------------3-----3-----------------3-----3-----------------5-----5-----------------5-----5-----------
E|--3-----3--3-----------3--------------------3--2-----2--2-----------2-----------------------------------------------------------------------------------------------------------------

E|-----------------------------------------------------------------3-----5--7-----7--5--3--5--
B|-----------------------------------------3-----3--3-----5--3--5-----5-----------------------
G|-----------------------------2-----2--4-----4-----------------------------------------------
D|-----------------2--5--5--------5-----------------------------------------------------------
A|-----------2--5-----------------------------------------------------------------------------
E|--3-----5-----------------------------------------------------------------------------------

E|--------7-----------7-----------------------------------------------------------------------------------
B|--10-12-------10-12-------10-8-----8-----10----10-8-----10----10-8-----8--------------------------------
G|--------------------------------9--------------------9--------------9-----9--7--9--7-----7--------------
D|--------------------------------------------------------------------------------------9-----9--7--9--7--
A|--------------------------------------------------------------------------------------------------------
E|--------------------------------------------------------------------------------------------------------

Use manual mode to free up cursor. Paste any tab in acousterr tab maker and we'll play it !!!
tabs and chords, guitar tabs, music transcription, music technology, deep learning, music information retrieval, transcribe into tabs & chords, chordify, music renditions, songsterr, reverbnation, tabulature, bollywood chords, ultimate guitar, yousician, guitar lessons, acoustic guitar, electric guitar, guitar tuner, 911 tabs