Guitar Tabs for Teri Pyaari Pyaari

Sahi jaawe na judayi sajjna
E|--------------------------------------------------
B|--------5--5--6--6--5--5--------------------------
G|---5/7--------------------7--7--5---5h-7p5--------
D|--------------------------------------------8-----
A|--------------------------------------------------
E|--------------------------------------------------

Tere bina dil naiyo lagna
E|--------------------------------------
B|-----------5--5--5--5-----6--5--------
G|-----5--5--------------7--------7-----
D|--8-----------------------------------
A|--------------------------------------
E|--------------------------------------

Teri pyari-pyari do akhiyan
E|--------------5--5--5--5-----6--5------5h-6p5--------
B|--------5--5--------------8--------8-----------8-----
G|-----7-----------------------------------------------
D|-----------------------------------------------------
A|-----------------------------------------------------
E|-----------------------------------------------------

Tadpayein mujhe sari ratiyan
E|--------------------------5--------
B|--5--5--5--8--8--8--8--6-----8--6--
G|-----------------------------------
D|-----------------------------------
A|-----------------------------------
E|-----------------------------------

Sahi jaawe na judayi sajjna
E|--10-12-12-13-13-12-12-10-10\8---8h10p8--------
B|-----------------------------------------11----
G|-----------------------------------------------
D|-----------------------------------------------
A|-----------------------------------------------
E|-----------------------------------------------

Tere bina dil naiyo lagna
E|-----8--8--12-12-12-12-10----13-12-10----
B|--11-------------------------------------
G|-----------------------------------------
D|-----------------------------------------
A|-----------------------------------------
E|-----------------------------------------

Meri nazran da noor Kade hoyin na tu door....
E|-----------------------------------------------------------------------------------
B|--------5--5--6--6--5--------5--5--6--6--5--------5--5--6--6--5--5-----------------
G|---5/7-----------------7--7-----------------7--7--------------------7--7--5---5/7--
D|-----------------------------------------------------------------------------------
A|-----------------------------------------------------------------------------------
E|-----------------------------------------------------------------------------------

Ik paase mera rabb sajjna
E|--------------5--5--5--5-----6--5------5h-6p5--------
B|--------5--5--------------8--------8-----------6-----
G|-----7-----------------------------------------------
D|-----------------------------------------------------
A|-----------------------------------------------------
E|-----------------------------------------------------

Ik paase sara jagg sajna
E|--------------------------5--------
B|--5--5--5--8--8--8--8--6-----8--6--
G|-----------------------------------
D|-----------------------------------
A|-----------------------------------
E|-----------------------------------
tabs and chords, guitar tabs, music transcription, music technology, deep learning, music information retrieval, transcribe into tabs & chords, chordify, music renditions, songsterr, reverbnation, tabulature, bollywood chords, ultimate guitar, yousician, guitar lessons, acoustic guitar, electric guitar, guitar tuner, 911 tabs