Guitar Tabs for Teri Najat De Shok Wich

(/) Slide Up  (\) Slide Down  (h) Hammer On  (p) Pull Off  (b) Bend (r) Release (v) Vibrato (x) Muted

Tabs for Song : 
BPM : 200

Song lyrics here
E|--------------------------------------------------------6--
B|--------------------------------------------------6--6-----
G|-----1--3-----------------------4--4-----1--5--6-----------
D|-----------4-----------------2-----------------------------
A|-----------------3--3--2--2-----------3--------------------
E|--3-----------3--------------------------------------------

Song lyrics here
E|--------------------------------------------6--------
B|-----4--5--4--3--4--4--4--4--------2-----6-----6-----
G|--------------------------------1-----4--------------
D|--2--------------------------------------------------
A|-----------------------------3--------------------5--
E|-----------------------------------------------------

Paste any tab in acousterr's tab maker and we'll play it !!!
Now supports capo and sound effects for vibrato/pull-off/hammer/bends/mutes etc !!! Checkout help section

Guitar Tabs for Teri Najat De Shok Wich






E|--
B|--
G|--
D|--
A|--
E|--


E|--
B|--
G|--
D|--
A|--
E|--

tabs and chords, guitar tabs, music transcription, music technology, deep learning, music information retrieval, transcribe into tabs & chords, chordify, music renditions, songsterr, reverbnation, tabulature, bollywood chords, ultimate guitar, yousician, guitar lessons, acoustic guitar, electric guitar, guitar tuner, 911 tabs