Guitar Tabs for Tera Zikr - Darshan Raval Tabs

Tera Zikr Guitar Lead Tabs

Abhi abhi to mile the Phir juda ho gaye
E|-----------------------------------------------------------
B|--0--1--0--1--1--3--1--0-----0-----------------------------
G|--------------------------2--------0--0--2-----0-----------
D|--------------------------------------------3-----3--2-----
A|-----------------------------------------------------------
E|-----------------------------------------------------------

Kya thi meri khataa Tum sazaa ho gaye
E|-----------------------------------------------------------
B|--0--1--0--1--1--3--1--0-----0-----------------------------
G|--------------------------2--------0--0--2-----0-----------
D|--------------------------------------------3-----3--2-----
A|-----------------------------------------------------------
E|-----------------------------------------------------------

Mujhe khone ke baad ik din Tum mujhe yaad karoge
E|--------------0--------------------------------------------------------
B|-----------------3--1-----1--3-----0--------------1--0--1--3--1--------
G|--2--2--2--2-----------4--------------2--0--2--2-----------------4-----
D|-----------------------------------------------------------------------
A|-----------------------------------------------------------------------
E|-----------------------------------------------------------------------

Phir dekhna milne ki mujhse Tum fariyad karoge
E|--------------0--------------------------------------------------------
B|-----------------3--1-----1--3--0-----------------1--0--1--3--1--------
G|--2--2--2--2-----------4--------------2--0--2--2-----------------4-----
D|-----------------------------------------------------------------------
A|-----------------------------------------------------------------------
E|-----------------------------------------------------------------------


tabs and chords, guitar tabs, music transcription, music technology, deep learning, music information retrieval, transcribe into tabs & chords, chordify, music renditions, songsterr, reverbnation, tabulature, bollywood chords, ultimate guitar, yousician, guitar lessons, acoustic guitar, electric guitar, guitar tuner, 911 tabs