Guitar Tabs for Shab Tum Ho - Darshan Raval

(/) Slide Up  (\) Slide Down  (h) Hammer On  (p) Pull Off  (b) Bend (r) Release (v) Vibrato (x) Muted
E|--
B|--
G|--
D|--
A|--
E|--


Tabs for Song : 

Itni mohabbat Karta hoon k lafz he na keh payen
E|-----------------------------------------------------------------------------------
B|-----------------------------------------------------------------------------------
G|---5/7--7--8---7h-8p7--------7--7--8---7h-8p7--------7--7--8---7h-8p7--------------
D|-----------------------10-8--------------------10-8--------------------10-8--10/12-
A|-----------------------------------------------------------------------------------
E|-----------------------------------------------------------------------------------

tum mile mujhe yun lage jese koi dua mil jaye
E|--------------------------------------------------------------------------------
B|--------------------------------------------------------------------------------
G|--7--7--8---7h-8p7--------7--7--8---7h-8p7--------7--7--8---7h-8p7--------------
D|--------------------10-8--------------------10-8--------------------10-8--10/12-
A|--------------------------------------------------------------------------------
E|--------------------------------------------------------------------------------

Paste any tab in acousterr's tab maker and we'll play it !!!
Now supports capo and sound effects for vibrato/pull-off/hammer/bends/mutes etc !!! Checkout help section

itni mohabbat karta hoon k lafz he na keh paye

E|-----------------------------------------------------------------------------------
B|-----------------------------------------------------------------------------------
G|---5/7--7--10--7h-8p7--------7--7--8---7h-8p7--------7--7--8---7h-8p7--------------
D|-----------------------10-8--------------------10-8--------------------10-8--10/12-
A|-----------------------------------------------------------------------------------
E|-----------------------------------------------------------------------------------

tum mile mujhe yun lage jese koi dua mil jaye

same as above 


mujhe jeena tera bana le



E|--------------------------------------
B|-----------------------8--------------
G|-----------7---7h-8p7-----10-8-----7--
D|-----8--10----------------------10----
A|--10----------------------------------
E|--------------------------------------

kiya khud ko tere hawale


E|--------------------------------------
B|-----------------------8--------------
G|-----------7---7h-8p7-----10-8-----7--
D|-----8--10----------------------10----
A|--10----------------------------------
E|--------------------------------------

sochon tujhe sham se subah tak


E|--------------------------------------
B|-----------------------8--------------
G|-----------7---7h-8p7-----10-8-----7--
D|-----8--10----------------------10----
A|--10----------------------------------
E|--------------------------------------

har lamha


E|--------------
B|--------------
G|--------------
D|---8/10-8--7--
A|--------------
E|--------------

E|--------
B|--------
G|--------
D|--8--7--
A|--------
E|--------


k shab tum ho oo oo


E|--------------------------------------------------------
B|--------------------------------------------------------
G|-----------------------------------7-----8--7---8/10----
D|--8---7h-8p7-----------8--7--10-8-----10-------------12-
A|--------------10-8--10----------------------------------
E|--------------------------------------------------------


tum hi din ho oo


E|-----------------------------------------------
B|-----------------------------------------------
G|-----------------------------------7-----------
D|--8---7h-8p7-----------8--7--10-8-----10--7h8--
A|--------------10-8--10-------------------------
E|-----------------------------------------------

filler


E|-----------------
B|-----------------
G|-----------------
D|---7h-8p7-----7--
A|-----------10----
E|-----------------


then again last two lines

thank you
https://www.youtube.com/channel/UC86jX8v-SzgBsGRFVBwOa2Q
tabs and chords, guitar tabs, music contests, music covers, songsterr, reverbnation, renditions, tabulature, bollywood chords, ultimate guitar, yousician, guitar lessons, torrins, fender, gibson, acoustic guitar, electric guitar, youtube covers, gootar, guitar tuner, A-Z tabs, 911 tabs