Guitar Tabs for Tera Zikr | Darshan Raval | Easiest Finger Style

(/) Slide Up  (\) Slide Down  (h) Hammer On  (p) Pull Off  (b) Bend (r) Release (v) Vibrato (x) Muted

Tabs for Song : Tera zikr by darshan raval(finger style)

Intro
E|--------------------------------------------------------------
B|--1-----0--------1-----0--------------0-----------0-----------
G|--------------------------------2--------0--2--------0---0h2--
D|--------------------------------------------------------------
A|--0--------------0--------------------------------------------
E|--------------------------------3-----------1------------3h---

Abhi abhi tou mile the
E|--------------------------------------
B|--0--1-----0--1--3-----1-----------0--
G|--------------------------2--2--------
D|--------------------------------------
A|-----0--------------------------------
E|--------------------------3-----------

Paste any tab in acousterr's tab maker and we'll play it !!!
Now supports capo and sound effects for vibrato/pull-off/hammer/bends/mutes etc !!! Checkout help section

Phir judah hoo gaye
E|--------------------------------
B|--------------------------------
G|--0--0--2-----------0-----------
D|--------------3--------3--2--0--
A|--------------------------------
E|--------1--------------------3--

Kiya thi meri khata
E|-----------------------------------
B|--0--1-----0--1--3--0--1--0--------
G|-----------------------------2--0--
D|-----------------------------------
A|-----0-----------------------------
E|-----------------------------3-----

Tum saza hoo gaye
E|-----------------------------
B|-----------------------------
G|--0--0--2--------0-----------
D|--------------3-----3--2--0--
A|-----------------------------
E|--------1-----------------3--

Mujhe khone k bad ek din
E|--------------------------------------
B|-----------------5--3-----1--0--1--3--
G|--2--2--2-----2-----------------------
D|--------------------------------------
A|--------0-----------------------------
E|--------------------------------------

Tum mujhe yaad karooge
E|--------------------------------------------
B|-----1--0-----------------1--0--1--3--1--0--
G|-----------2--0--2-----2--------------------
D|--------------------------------0-----------
A|--------------------------------------------
E|-----0-----------1-----------------------3--


Phir dekhna na milne ki mujhse
E|-----------------------------------------
B|-----------------5--3-----0--1--0--3--0--
G|--2--2--2-----2--------------------------
D|-----------------------------------------
A|--------0--------------------------------
E|-----------------------------------------

Tum faryaad karooge
E|--------------------------------------------
B|--1--0-----------------1--0--1--3--1-----0--
G|--------2--0--2-----2-----------------------
D|-----------------------------0--------------
A|--------------------------------------------
E|--0-----------1--------------------------3--

Mujhe khone k bad ek din
Tum mujhr yaad karooge

same as above

Phir dekhna milne ki mujhse 
E|-----------------------------------------
B|--8--6--5-----5--3--5-----5--3--5--3--1--
G|-----------------------------------------
D|-----------------------------------------
A|--------0-----------0--------------------
E|--------------------------------------3--


Tum faryaad karooge
E|--------------------------------------------
B|--0--------------------1--0-----1--3--1--0--
G|--------2--2--2-----2-----------------------
D|--------------------------------------------
A|--------------------------------------------
E|--------------1--------------------------3--

Again Intro


hey guys if you like these tabs so
please subscribe to my channel 
and also like my Facebook page 
Thankyou.....!


My Tutorial's Link...!

https://youtu.be/D5alGDC81M4
tabs and chords, guitar tabs, music contests, music covers, songsterr, reverbnation, renditions, tabulature, bollywood chords, ultimate guitar, yousician, guitar lessons, torrins, fender, gibson, acoustic guitar, electric guitar, youtube covers, gootar, guitar tuner, A-Z tabs, 911 tabs