Guitar Tabs for Tera Zikr - Darshan Raval Tabs

(/) Slide Up  (\) Slide Down  (h) Hammer On  (p) Pull Off  (b) Bend (r) Release (v) Vibrato

Intro..
E|-----------------------------------------
B|-----------------------------------------
G|--5--4--5--4-----4--------4--------------
D|--------------7-----5--7-----5---5/7-----
A|-----------------------------------------
E|-----------------------------------------

Abhi abhi to mile the.
E|-----------------------------------
B|-----------------------------------
G|--4--5-----4--5--7--5--------4-----
D|-----------------------7--7--------
A|-----------------------------------
E|-----------------------------------

Phir juda ho gaye
E|--------------------------------
B|--------------------------------
G|--------------------------------
D|--5--5--7--------5--------------
A|--------------8-----8--7--5-----
E|--------------------------------

Kya thi meri khataa
E|--------------------------------------
B|--------------------------------------
G|--4--5-----4--5--7--4--5--4-----------
D|-----------------------------7--5-----
A|--------------------------------------
E|--------------------------------------

Tum sazaa ho gaye
E|--------------------------------
B|--------------------------------
G|--------------------------------
D|--5--5--7--------5--------------
A|--------------8-----8--7--5-----
E|--------------------------------

Mujhe khone ke baad ik din.
E|--------------------------------------------
B|--------------------------------------------
G|--------------9--7--5--4--7--4--5--4--------
D|--7--7--7--7--------------------------7--5--
A|--------------------------------------------
E|--------------------------------------------

Tum mujhe yaad karoge..
E|-----------------------------
B|-----------------------------
G|--------5--4--5--7--5--4-----
D|--7--7-----------------------
A|-----------------------------
E|-----------------------------

Phir dekhna milne ki mujhse Tum fariyad karoge
E|--------------------------------------------------------------------
B|--------------------------------------------------------------------
G|--------------9--7--5--4--5--7-----------------5--4--5--7--5--4-----
D|--7--7--7--7-----------------------7--5--7--7-----------------------
A|--------------------------------------------------------------------
E|--------------------------------------------------------------------

Mujhe khone ke baad ik din.
E|--------------------------------------------
B|--------------------------------------------
G|--------------9--7--5--4--7--4--5--4--------
D|--7--7--7--7--------------------------7--5--
A|--------------------------------------------
E|--------------------------------------------

Tum mujhe yaad karoge..
E|-----------------------------
B|-----------------------------
G|--------5--4--5--7--5--4-----
D|--7--7-----------------------
A|-----------------------------
E|-----------------------------


Phir dekhna milne ki mujhse.
E|--------------------------------------------
B|--------------------------------------------
G|--12-10-9--9--7--9--9--7--9--7--5--4--------
D|--------------------------------------7-----
A|--------------------------------------------
E|--------------------------------------------

Tum fariyad karoge..
E|-----------------------------------
B|-----------------------------------
G|--------------5--4--5--7--5--4-----
D|--7--7--7--7-----------------------
A|-----------------------------------
E|-----------------------------------

Again Intro..
tabs and chords, guitar tabs, music transcription, music technology, deep learning, music information retrieval, transcribe into tabs & chords, chordify, music renditions, songsterr, reverbnation, tabulature, bollywood chords, ultimate guitar, yousician, guitar lessons, acoustic guitar, electric guitar, guitar tuner, 911 tabs