Guitar Tabs for Demons (imagine Dragons) Finger Style

Demons by Imagine Dragons           
Capo on 3rd Fret

[Verse 1]
When the days  are  cold And the cards  all fold And the saints  we  see  Are  all  made of  gold
E|--------------------------------------------------------------------------------------------------
B|--------------------------------------------------------------------------------------------------
G|--------0-----------------------0-----------------------2-----------------------------------------
D|-----------------2-----0-----------------2-----0-----------------2-----0--------3-----3-----3-----
A|--3--3--3--3--3--3--3--3--3--3--------------------3--3--0--0--0--0--0--0--3--3--------------------
E|--------------------------------3--3--3--3--3--3--3-----------------------------1--1--1--1--1--1--

When your dreams  all fail And the ones we hail Are the worst  of   all    And the blood's run stale
E|--------------------------------------------------------------------------------------------------------------
B|--------------------------------------------------------------------------------------------------------------
G|--------0-----------------------0-----------------------2-----------------------------------------------------
D|-----------------2-----0-----------------2-----0--------------2-----0-----------3-----3-----3------3/5--3--2--
A|--3--3--3--3--3--3--3--3--3--3--------------------3--3--0--0--0--0--0-----3--3--------------------------------
E|--------------------------------3--3--3--3--3--3--3-----------------------------1--1--1--1--1--1--------------

[Pre-Chorus 1]
I    wanna    hide  the truth I   wanna  shelter  you But with the beast inside There's nowhere we can hide
E|--------------------------------------------------------------------------------------------------
B|--------------------------------------1----0------------------------------------------------------
G|-----0--0--0--0--------0-----0--0--0-----------2--------------------------------------------------
D|--------2----------2------------0--------------2-----2--2--2--2----2---3-----3--3--3--3----2---2--
A|--3-----3-----3--3---3----------2--------------0--0-----0-----0--0---0----------3-----------------
E|--------------------------3-----3-----3--3--0-----------------------------1-----1-----1--1---1----

No  matter  what  we  breed We still are made of greed This is my kingdom come This is my kingdom come
E|----------------------------------------------------------------------------X-----X-----X-----X---
B|-----1--1--1--1----3-----0-----0--0--0--0-----------------------------------X-----X-----X-----X---
G|--------0-------------------------0--------/--4--2--------------------------X-----X-----X-----X---
D|--2-----2-------------------------0--------------------2--2--2--2----2---3--X--3--3--3--3--2--X--2
A|--3-----------3--3----3-----2-----------------------0-----0-----0--0--0-----X-----3-----X-----X---
E|----------------------------3-----------3--3--------------------------------1-----1-----1-----X---

[Chorus]
When you   feel   my  heat  Look    into  my  eyes  It's where my demons hide It's where my demons hide
E|--------0--0--3-----X-----------0--0--3-----X--------0--0--0--0--0--X--1-----1--1--1--1--0--X--0--
B|--------1--1--1--1--X--0-----0--0--0--0--0--X--------1--1--1--1--1--X--1-----1--1--1--1--1--X--1--
G|--------0-----0--0--X--0-----0--0--------0--X--2-----2--2--2--2--2--X--2-----2--2--2--2--2--X--2--
D|-----2--2-----------X-----------------------X--2--------------------X-----3-----------3-----X-----
A|--3-----X-----3-----X-----------X-----------X-----0-----X-----0-----X-----------X-----------X-----
E|--------X-----------X-----3-----X-----3-----X-----------X-----------X-----------X-----------X-----

Don't     get too close  It's     dark  inside  It's where my demons hide It's where my demons hide
E|--------0-----3-----X-----------0-----3-----X--------0--0--0--0--0--X--1-----1--1--1--1--0--X--(0)
B|--------1-----1--1--X--0-----0--0-----0--0--X--------1--1--1--1--1--X--1-----1--1--1--1--1--X--(1)
G|--------0-----0--0--X--0-----0--0--------0--X--2-----2--2--2--2--2--X--2-----2--2--2--2--2--X--(2)
D|-----2--2-----------X-----------------------X--2--------------------X-----3-----------3-----X-----
A|--3-----X-----3-----X-----------X-----------X-----0-----X-----0-----X-----------X-----------X-----
E|--------X-----------X-----3-----X-----3-----X-----------X-----------X-----------X-----------X-----

[Verse 2]
At the curtain's call It's the  last of    all When the lights fade out All the sinners crawl
E|--------------------------------------------------------------------------------------------------------
B|--------------------------------------------------------------------------------------------------------
G|--0-----------------------0-----------------------2-----------------------------------------------------
D|-----------2-----0-----------------2-----0-----------------2-----0--------3-----3-----3------------0/2--
A|--3--3--3--3--3--3--3--3--------------------3--3--0--0--0--0--0--0--3--3---------------------2/3--------
E|--------------------------3--3--3--3--3--3--3-----------------------------1--1--1--1--1--1--------------

So they dug your grave And the mas---qu---rade Will come calling out  At the mess you made
E|-----------------------------------------------------------------------------------------------------
B|--------------------------------------------------------------------------------------------0-----1--
G|--0-----------------------0-----------------------2-----------------------2-----0-----2--------------
D|-----------2-----0-----------------2-----0--------------2-----0--------------------------------------
A|--3--3--3--3--3--3--3--3--------------------3--3--0--0--0--0--0-----3--3-----------------------------
E|--------------------------3--3--3--3--3--3--3-----------------------------1--1-----1-----1-----1-----

[Pre-Chorus 2]
Don't wanna let you down But I am     hell  bound Though this is all for you Don't wanna hide the truth
E|-----------------------------------------------------------------------------------------------
B|--------------------------------------1v-------------------------------------------------------
G|-----0--0--0--0--------0-----0--0-----------2--------------------------------------------------
D|--------2----------2------------0-----------------2--2--2--2----2---3-----3--3--3--3----2---2--
A|--3-----3-----3--3---3----------2--------0-----0-----0-----0--0---0----------3-----------------
E|--------------------------3-----3--3-----------------------------------1-----1-----1--1--1-----

No  matter  what  we  breed We still are made of greed This is my kingdom come This is my kingdom come
E|----------------------------------------------------------------------------X-----X-----X-----X---
B|-----1--1--1-----3-----0-----0--0--0--0-------------------------------------X-----X-----X-----X---
G|--------0-----------------------0----------/4--2----------------------------X-----X-----X-----X---
D|--2-----2-----------------------0--------------------2--2--2--2----2-----3--X--3--3--3--3--2--X--2
A|--3--------3--3-----3-----2-----------------------0-----0-----0--0----0-----X-----3-----X-----X---
E|--------------------------3-----------3--3----------------------------------1-----1-----1-----X---

[Chorus]
When you   feel   my  heat  Look    into  my  eyes  It's where my demons hide It's where my demons hide
E|--------0--0--3-----X-----------0--0--3-----X--------0--0--0--0--0--X--1-----1--1--1--1--0--X--0--
B|--------1--1--1--1--X--0-----0--0--0--0--0--X--------1--1--1--1--1--X--1-----1--1--1--1--1--X--1--
G|--------0-----0--0--X--0-----0--0--------0--X--2-----2--2--2--2--2--X--2-----2--2--2--2--2--X--2--
D|-----2--2-----------X-----------------------X--2--------------------X-----3-----------3-----X-----
A|--3-----X-----3-----X-----------X-----------X-----0-----X-----0-----X-----------X-----------X-----
E|--------X-----------X-----3-----X-----3-----X-----------X-----------X-----------X-----------X-----    

    Don't     get too close  It's     dark  inside  It's where my demons hide It's where my demons hide
E|--------0-----3-----X-----------0-----3-----X--------0--0--0--0--0--X--1-----1--1--1--1--0--X--(0)
B|--------1-----1--1--X--0-----0--0-----0--0--X--------1--1--1--1--1--X--1-----1--1--1--1--1--X--(1)
G|--------0-----0--0--X--0-----0--0--------0--X--2-----2--2--2--2--2--X--2-----2--2--2--2--2--X--(2)
D|-----2--2-----------X-----------------------X--2--------------------X-----3-----------3-----X-----
A|--3-----X-----3-----X-----------X-----------X-----0-----X-----0-----X-----------X-----------X-----
E|--------X-----------X-----3-----X-----3-----X-----------X-----------X-----------X-----------X-----

[Bridge]

They say it's what you make I say it's up to  fate It's woven   in   my  soul I need to  let you go
E|---------------------X-----------------------X-----------------------X-----------------------X----
B|-----1--1--1--1----3-X-0-----0--0--0--0----1-X-----------------------X---------------------0-X-1--
G|--------0------------X-------0--0--0--0------X-2-----2--2--2--2------X-------2--2--2--2------X----
D|--------2------------X----------0------------X-2--------2----------2-X-3--------3------------X----
A|--3-----X-----3--3---X----------X------------X----0-----X-----0--0---X----------X------------X----
E|--------X------------X----3-----X-----3--3---X----------x------------X----1-----X-----1--1---X----

Your eyes, they shine so bright I wanna save that light I can't escape this now Unless you show me how
E|---------------------X-----------------------X-------0--0--0--0------X-------1--1--1--1--0--X--0--
B|-----1--1--1--1----3-X-0-----0--0--0--0----1-X-------1--1--1--1----3-X-1-----1--1--1--1--1--X--1--
G|--------0------------X-------0--0--0--0------X-2-----2--2--2--2------X-2-----2--2--2--2--2--X--2--
D|--------2------------X----------0------------X-2---------------------X-2--------------------X-----
A|--3-----X-----3--3---X----------X------------X----0-----X-----0--0---X----------X-----------X-----
E|--------X------------X----3-----X-----3--3---X----------X------------X----1-----X-----1-----X-----

[Chorus]
When you   feel   my  heat  Look    into  my  eyes  It's where my demons hide It's where my demons hide
E|--------0--0--3-----X-----------0--0--3-----X--------0--0--0--0--0--X--1-----1--1--1--1--0--X--0--
B|--------1--1--1--1--X--0-----0--0--0--0--0--X--------1--1--1--1--1--X--1-----1--1--1--1--1--X--1--
G|--------0-----0--0--X--0-----0--0--------0--X--2-----2--2--2--2--2--X--2-----2--2--2--2--2--X--2--
D|-----2--2-----------X-----------------------X--2--------------------X-----3-----------3-----X-----
A|--3-----X-----3-----X-----------X-----------X-----0-----X-----0-----X-----------X-----------X-----
E|--------X-----------X-----3-----X-----3-----X-----------X-----------X-----------X-----------X-----  

    Don't     get too close  It's     dark  inside  It's where my demons hide It's where my demons hide
E|--------0-----3-----X-----------0-----3-----X--------0--0--0--0--0--X--1-----1--1--1--1--0--X--0--
B|--------1-----1--1--X--0-----0--0-----0--0--X--------1--1--1--1--1--X--1-----1--1--1--1--1--X--1--
G|--------0-----0--0--X--0-----0--0--------0--X--2-----2--2--2--2--2--X--2-----2--2--2--2--2--X--2--
D|-----2--2-----------X-----------------------X--2--------------------X-----3-----------3-----X-----
A|--3-----X-----3-----X-----------X-----------X-----0-----X-----0-----X-----------X-----------X-----
E|--------X-----------X-----3-----X-----3-----X-----------X-----------X-----------X-----------X-----

Credits to the rightful owners. (Mixed various tablatures into one) -@arfmagno
tabs and chords, guitar tabs, music contests, music covers, songsterr, reverbnation, renditions, tabulature, bollywood chords, ultimate guitar, yousician, guitar lessons, torrins, fender, gibson, acoustic guitar, electric guitar, youtube covers, gootar, guitar tuner, A-Z tabs, 911 tabs