Guitar Tabs for Tamma tamma loge

Tabs for Song :Tamma tamma loge

tu premi
E|--8--8--10----
B|--------------
G|--------------
D|--------------
A|--------------
E|--------------

mein premi
E|--8--8--10----
B|--------------
G|--------------
D|--------------
A|--------------
E|--------------

tu razi
E|--8--8--10----
B|--------------
G|--------------
D|--------------
A|--------------
E|--------------

mein razi
E|--8--8--10----
B|--------------
G|--------------
D|--------------
A|--------------
E|--------------

tu aa ha..
E|--10----8--10----
B|-----------------
G|-----------------
D|-----------------
A|-----------------
E|-----------------

mein aa ha..
E|--10----8--10----
B|-----------------
G|-----------------
D|-----------------
A|-----------------
E|-----------------

tu aa ha..
E|--10----8--10----
B|-----------------
G|-----------------
D|-----------------
A|-----------------
E|-----------------

tu premi aa haa
E|--8--8--10----8-----10-
B|-----------------------
G|-----------------------
D|-----------------------
A|-----------------------
E|-----------------------

mein premi aa haa
E|--8--8--10----8-----10-
B|-----------------------
G|-----------------------
D|-----------------------
A|-----------------------
E|-----------------------

tu razi aa haa
E|--8--8--10----8-----10-
B|-----------------------
G|-----------------------
D|-----------------------
A|-----------------------
E|-----------------------

mein razi
E|--8--8--10----
B|--------------
G|--------------
D|--------------
A|--------------
E|--------------

fir kya daddy kya ammaa...
E|--10-10-10-8--10-8--------8--10-8--10-12-10-8-----
B|--------------------10----------------------------
G|--------------------------------------------------
D|--------------------------------------------------
A|--------------------------------------------------
E|--------------------------------------------------

ek bas tu pyaar ke kabil 
E|--------8--8-----8-----------8--8-----8-----
B|--10-10-------10----10-10----------10-------
G|--------------------------------------------
D|--------------------------------------------
A|--------------------------------------------
E|--------------------------------------------

sara jahaan hai nikamma
E|--8--8--8--8--10\12-8--10-10----
B|--------------------------------
G|--------------------------------
D|--------------------------------
A|--------------------------------
E|--------------------------------

tamma tamma loge
E|--------------------------
B|--8--8-----10-------------
G|--------------11-7--9-----
D|--------------------------
A|--------------------------
E|--------------------------

tamma tamma loge tamma
E|--------------------------------
B|--8--8-----10-------------------
G|--------------11-7--9--7--7-----
D|--------------------------------
A|--------------------------------
E|--------------------------------
tabs and chords, guitar tabs, music transcription, music technology, deep learning, music information retrieval, transcribe into tabs & chords, chordify, music renditions, songsterr, reverbnation, tabulature, bollywood chords, ultimate guitar, yousician, guitar lessons, acoustic guitar, electric guitar, guitar tuner, 911 tabs