Guitar Tabs for Surili Akhiyon Wale - Veer Tabs

(/) Slide Up  (\) Slide Down  (h) Hammer On  (p) Pull Off  (b) Bend (r) Release (v) Vibrato (x) Muted

Tabs for Song : Surili Akhiyon Wale

Intro
E|-----------9--------7--------------------------------9--------7-----------------
B|---7\9--9-----7--7-----5--5--4---5/7--5--7---7/9--9-----7--7-----5--5--4---5/7--
G|--------------------------------------------------------------------------------
D|--------------------------------------------------------------------------------
A|--------------------------------------------------------------------------------
E|--------------------------------------------------------------------------------

Surili Aanhkiyon Wale  Suna Hai Teri Aankhiyon Se
E|--4--4--7--7--7---7p4--------------4--4--7--7--7---7p4--------------
B|-----------------------7---9p7--5-----------------------7---9p7--5--
G|--------------------------------------------------------------------
D|--------------------------------------------------------------------
A|--------------------------------------------------------------------
E|--------------------------------------------------------------------

Behti Hai Neendein Aur Neendon Mein Sapne
E|--4--7--7---7/9--9--7--9---9/11-11-9--9---9p11-7--
B|--------------------------------------------------
G|--------------------------------------------------
D|--------------------------------------------------
A|--------------------------------------------------
E|--------------------------------------------------

Kabhi To Kinare Pe Utar Mere Sapno Se
E|--4--4--7--7--7---7p4--------------4--4--7--7--7---7p4--------------
B|-----------------------7---9p7--5-----------------------7---9p7--5--
G|--------------------------------------------------------------------
D|--------------------------------------------------------------------
A|--------------------------------------------------------------------
E|--------------------------------------------------------------------

Aaja Zameen Pe Aur Mil Ja Kahin Pe
E|--4--7--7---7/9--9--7--9---9/11-11-9--9---9p11-7--
B|--------------------------------------------------
G|--------------------------------------------------
D|--------------------------------------------------
A|--------------------------------------------------
E|--------------------------------------------------

Mil Ja Kahin O Oo O
E|--12-11-14-12-12-14-14/16-16-16-14-12-
B|--------------------------------------
G|--------------------------------------
D|--------------------------------------
A|--------------------------------------
E|--------------------------------------

Mil Ja Kahin Samay Se Pare Samay Se Pare
E|--12-12-11-14-12-12-12-11-14-12-12-12-12-14-14/16-16-16-14-12-
B|--------------------------------------------------------------
G|--------------------------------------------------------------
D|--------------------------------------------------------------
A|--------------------------------------------------------------
E|--------------------------------------------------------------

Mil Ka Kahin
E|--12-12-11-14-12----------------
B|-----------------12-14-14/15-12-
G|--------------------------------
D|--------------------------------
A|--------------------------------
E|--------------------------------

Tu Bhi Aankhiyon Se Kabhi Meri Aankhiyon Ki Sun
E|--------------------------------------------------
B|--12-14-15-15-14-12-14-14-12-10-12-12-10-9---9\7--
G|--------------------------------------------------
D|--------------------------------------------------
A|--------------------------------------------------
E|--------------------------------------------------

Intro
E|-----------9--------7--------------------------------9--------7-----------------
B|---7\9--9-----7--7-----5--5--4---5/7--5--7---7/9--9-----7--7-----5--5--4---5/7--
G|--------------------------------------------------------------------------------
D|--------------------------------------------------------------------------------
A|--------------------------------------------------------------------------------
E|--------------------------------------------------------------------------------

Surili Aanhkiyon Wale  Suna Hai Teri Aankhiyon Se
E|--4--4--7--7--7---7p4--------------4--4--7--7--7---7p4--------------
B|-----------------------7---9p7--5-----------------------7---9p7--5--
G|--------------------------------------------------------------------
D|--------------------------------------------------------------------
A|--------------------------------------------------------------------
E|--------------------------------------------------------------------
tabs and chords, guitar tabs, music contests, music covers, songsterr, reverbnation, renditions, tabulature, bollywood chords, ultimate guitar, yousician, guitar lessons, torrins, fender, gibson, acoustic guitar, electric guitar, youtube covers, gootar, guitar tuner, A-Z tabs, 911 tabs