Guitar Tabs for Surele Akhiyon Wale

(/) Slide Up  (\) Slide Down  (h) Hammer On  (p) Pull Off  (b) Bend (r) Release (v) Vibrato (x) Muted

Tabs for Song : Surili Akhiyon Wale

Intro:
E|--------------------7-----------7----------------------
B|--5--7---7\9-----9-----7-----7-----5-----5--4---5\7-----
G|--------------------------------------------------------
D|--------------------------------------------------------
A|--------------------------------------------------------
E|--------------------------------------------------------

Surili akhiyon wale
E|--------7--7-------------------
B|--9--9-----------7--7--9--7-----
G|-----------------------------9--
D|--------------------------------
A|--------------------------------
E|--------------------------------

suna hai teri akhiyon se
E|--------7--7--7--9--7--------------
B|--9--9-----------------9--7---7\9--
G|-----------------------------------
D|-----------------------------------
A|-----------------------------------
E|-----------------------------------

Behti hai neendein aurr neendon mein sapne

E|-----7--7--9--9--7--9---9\11-11-11-9--7--------
B|--9--------------------------------------10-9--
G|-----------------------------------------------
D|-----------------------------------------------
A|-----------------------------------------------
E|-----------------------------------------------

Kabhi to kinare pe
E|--------7--7-------------------
B|--9--9-----------7--7--9--7-----
G|-----------------------------9--
D|--------------------------------
A|--------------------------------
E|--------------------------------

utar mere sapno se
E|--------7--7--7--9--7--------------
B|--9--9-----------------9--7---7\9--
G|-----------------------------------
D|-----------------------------------
A|-----------------------------------
E|-----------------------------------

aja zameen pa or mil ja kahin pa
E|-----7--7--9--9--7--9---9\11-11-11-9--7--
B|--9--------------------------------------
G|-----------------------------------------
D|-----------------------------------------
A|-----------------------------------------
E|-----------------------------------------

mil ja kahin........
E|--12-11-12-12----12-14\16-14-12----12-11-12-12----12-12-11-12-12-12-11-12-12----------------------------------------------------------
B|-----------------------------------------------------------------------------12-14\15-12-12-14-15-15-14-12-14-14-12-10-12-12-10-9--7--
G|--------------------------------------------------------------------------------------------------------------------------------------
D|--------------------------------------------------------------------------------------------------------------------------------------
A|--------------------------------------------------------------------------------------------------------------------------------------
E|--------------------------------------------------------------------------------------------------------------------------------------







Paste any tab in acousterr's tab maker and we'll play it !!!
Now supports capo and sound effects for vibrato/pull-off/hammer/bends/mutes etc !!! Checkout help section
tabs and chords, guitar tabs, music contests, music covers, songsterr, reverbnation, renditions, tabulature, bollywood chords, ultimate guitar, yousician, guitar lessons, torrins, fender, gibson, acoustic guitar, electric guitar, youtube covers, gootar, guitar tuner, A-Z tabs, 911 tabs