Guitar Tabs for Tere Liye - Veer Zaara

(/) Slide Up  (\) Slide Down  (h) Hammer On  (p) Pull Off  (b) Bend (r) Release (v) Vibrato (x) Muted

Tabs for Song : 
BPM : 250

E|------7h10-----8p7-----7--------------------------7--------------
B|--------------------------------0--------------------------------
G|-----------------------------------------9-----------------------
D|-----------------------------------------------------------------
A|-----------------------------------------------------------------
E|-----------------------0-----------------------------------------

E|------8p7------5\3-----5--------------------------5--
B|--------------------------------0--------------------
G|-----------------------------------------5-----------
D|-----------------------------------------------------
A|-----------------------0-----------------------------
E|-----------------------------------------------------

E|--------------------7--------5--------5--------3--3--3---------2p0-----0--------2-----
B|--------------------------------------------------------------------------------------
G|--------------------------------------------------------------------------------------
D|--------------------------------------------------------------------------------------
A|--------------------------------------------------------------------------------------
E|--------------------0-----------------------------------------------------------------

E|-----3--------------------------3-|
B|--------------0-------------------|
G|-----------------------4----------|
D|----------------------------------|
A|----------------------------------|
E|-----0----------------------------|

E|--------------3---------2h-3p2-----------------------0--------------------------
B|--------------------------------------3-----3-----------------3-----------------
G|-----------------------------------------------------------------------0--------
D|--------------------------------------------------------------------------------
A|--------------------------------------------3-----------------------------------
E|--------------------------------------------------------------------------------

E|--------3---------2h-3p2-----------------------0--------------------
B|--------------------------------3-----3-----------------3-----------
G|-----------------------------------------------------------------0--
D|--------------------------------------------------------------------
A|--------------------------------------2-----------------------------
E|--------------------------------------------------------------------

E|-----------------0--------2--------3--------5--------7--------8--------10-------12-------14-------------------------14-
B|--------------------------------------------------------------------------------------------------0--------------------
G|-----------------------------------------------------------------------------------------------------------0-----------
D|-----------------------------------------------------------------------------------------------------------------------
A|-----------------2-----------------------------------5-----------------------------------14----------------------------
E|-----------------------------------------------------------------------------------------------------------------------

E|--------------15-------14-------12-------10-------12-------
B|-----------------------------------------------------------
G|-----------------------------------------------------------
D|-----------------------------------------------------------
A|-----------------------------------------------------------
E|-----------------------------------------8-----------------

E|--------------7---------7h-8p7--------5--------7--------------------------(7)
B|--------------------------------------------------------0--------------------
G|-----------------------------------------------------------------9-----------
D|-----------------------------------------------------------------------------
A|-----------------------------------------------------------------------------
E|-----------------------------------------------0-----------------------------


tabs and chords, guitar tabs, music transcription, music technology, deep learning, music information retrieval, transcribe into tabs & chords, chordify, music renditions, songsterr, reverbnation, tabulature, bollywood chords, ultimate guitar, yousician, guitar lessons, acoustic guitar, electric guitar, guitar tuner, 911 tabs