Ukulele Tabs for Veer Zara Ukulele Theme

A|-----3-----------------------------------------------
E|--5-----6--5--5-----5--5-----6--5--3--3-----3--3-----
C|-----------------------------------------------------
G|-----------------------------------------------------


A|--------------------------------------------
E|--5--3--3-----------------------------------
C|-----------5--5-----5--4--2--4---4/5--5-----
G|--------------------------------------------


A|--------------------------------------------------
E|--------------------------------------------------
C|--5--4--2---0h2--2--2-----5--4--2---0h2--2--2-----
G|--------------------------------------------------


A|--------------------3--5---5/7--7--7-----
E|-----------3--5--6-----------------------
C|--2--4--5--------------------------------
G|-----------------------------------------


A|--8--7--5--------------------
E|-----------8---8/10-10-10----
C|-----------------------------
G|-----------------------------


A|-----------------------------
E|--5--6--5-----5-----5--5-----
C|-----------7-----------------
G|-----------------------------
tabs and chords, guitar tabs, music transcription, music technology, deep learning, music information retrieval, transcribe into tabs & chords, chordify, music renditions, songsterr, reverbnation, tabulature, bollywood chords, ultimate guitar, yousician, guitar lessons, acoustic guitar, electric guitar, guitar tuner, 911 tabs