Guitar Tabs for Sunn Le Zara - 1921 Tabs

(/) Slide Up  (\) Slide Down  (h) Hammer On  (p) Pull Off  (b) Bend (r) Release (v) Vibrato

Tabs for Song : Sunn Le Zara

Ae dil thahar jaa Jeene ki koi tu wajah dhoondh le
E|--------------------------------------------------------
B|--------5--5--------------5--5--------------------------
G|--4--5--------4-----4--5--------4--5--4-----------------
D|-----------------------------------------7--5---7\-5p4--
A|--------------------------------------------------------
E|--------------------------------------------------------

Ghabra naa gham se Apni khushi ka tu pata dhoondh le
E|--------------------------------------------------------
B|--------5--5--------------5--5--------------------------
G|--4--5--------4-----4--5--------4--5--4-----------------
D|-----------------------------------------7--5---7\-5p4--
A|--------------------------------------------------------
E|--------------------------------------------------------

Tu pyaar kar Izhaar kar
E|-----------------------------------
B|-----------------------------------
G|-----------------------------------
D|--4--5--7---5/7--7--9--10--9/10\9--
A|-----------------------------------
E|-----------------------------------

Hai pyaar hi gham ki davaa
E|-----------------------------------------
B|-----------------------------------------
G|--------------------7--5--4--5--7--5--4--
D|--4--5--7---5/7--7-----------------------
A|-----------------------------------------
E|-----------------------------------------

Sunn le zara Sunn le zara
E|--------------------------------------
B|--------7---5/7--5--------5-----------
G|--4--5--------------4--5------5/7--5--
D|--------------------------------------
A|--------------------------------------
E|--------------------------------------

Ae mere dil sunn le zara
E|-----------------------------------
B|-----------------------------------
G|-----5--4--------------------------
D|--7--------5--4-----4--5--7---7/9--
A|-----------------------------------
E|-----------------------------------
tabs and chords, guitar tabs, music contests, music covers, songsterr, reverbnation, renditions, tabulature, bollywood chords, ultimate guitar, yousician, guitar lessons, torrins, fender, gibson, acoustic guitar, electric guitar, youtube covers, gootar, guitar tuner, A-Z tabs, 911 tabs