Guitar Tabs for Sun Le Zara 1921

(/) Slide Up  (\) Slide Down  (h) Hammer On  (p) Pull Off  (b) Bend (r) Release (v) Vibrato (x) Muted

Tabs for Song : 

    ae dil teher ja      jeene ki koi         tu wajah  dhund le
    ghabra na gam se     apni khushi ka       tu pata shundh le
E|--------0--0-----------------0--0--------------------------------
B|--0--1--------1--0-----0--1--------1--0------0h1--0--------------
G|-----------------------------------------------------2--0--2-----
D|--------------------------------------------------------------4--
A|-----------------------------------------------------------------
E|-----------------------------------------------------------------
    tu pyaar kar   izhaar  .....kar   hai pyaar hi  gam ki dawaaaaa
E|--------------------------------------------------------------------
B|--------------------0--1---0h-1p0--------------------3--1---0h1--0--
G|-----0--2--2-----2--------------------0--2--2-----2-----------------
D|--4----------------------------------4------------------------------
A|--------------------------------------------------------------------
E|--------------------------------------------------------------------
    su le zara        sun lezara aa a      ae mer dil.....      sunle zaraa
E|--------2--2--0----------------------------------------------------------------
B|--0--1--------------0--1--3--1--0-----------0--1--0-----------------------------
G|-----------------------------------2-----2-----------0-----------0--2---2h4-----
D|--------------------------------------------------------4-----4-----------------
A|--------------------------------------------------------------------------------
E|--------------------------------------------------------------------------------

    Haathon mein tere,  Rekhaaon sa main      Lafzon mein apne  bunn le mujhe
    Main zindagi hoon,  Jee le mujhe tu       Aansun hoon tera, Pee le mujhe
E|--------2--2--0--3-----------2--2--0--3-----------2--2--0--0-----------------
B|--0--1-----------------0--1-----------------0--1--------------3--1--3--1-----
G|--------------------------------------------------------------------------2--
D|-----------------------------------------------------------------------------
A|-----------------------------------------------------------------------------
E|-----------------------------------------------------------------------------

    Aawaaz kya doon,         Main be-sadaa hoon   Dhadkan mein apni sunn le mujhe
    Main khwaab jaisa        Toota hoon tujhme    Bikhra hoon tujhme chunn le mujhe
E|-----------2--0--2---------------2/3--2--------0--2--3--2--0--0--------------------
B|-----0--1-----------------0--1-----------------------------------3--1---1/3--1--0--
G|--2--------------------2-----------------------------------------------------------
D|-----------------------------------------------------------------------------------
A|-----------------------------------------------------------------------------------
E|-----------------------------------------------------------------------------------

    Dekh le           tujhme  hoon main    Tu hi mera     hai aainaa 
E|--------------------------------------------------------------------------
B|-----------------------0--1---0h1--0-----------------------3--1---0h1--0--
G|-----0--2---0h2-----2--------------------0--2--2--2-----2-----------------
D|--4-----------------------------------------------------------------------
A|--------------------------------------------------------------------------
E|--------------------------------------------------------------------------

rest repeats...
tabs and chords, guitar tabs, music transcription, music technology, deep learning, music information retrieval, transcribe into tabs & chords, chordify, music renditions, songsterr, reverbnation, tabulature, bollywood chords, ultimate guitar, yousician, guitar lessons, acoustic guitar, electric guitar, guitar tuner, 911 tabs