Guitar Tabs for Zara Zara

yuhi garaj garaj kali ghata...
E|--------------3-----3-----3------3h-4p3-----------------------------3--------------------------
B|--------4--6-----6-----6-----6------------6\3---3\1-----1--3---3/6------6\4--4-----3--4--3-----
G|---3/5--------------------------------------------------------------------------------------5--
D|-----------------------------------------------------------------------------------------------
A|-----------------------------------------------------------------------------------------------
E|-----------------------------------------------------------------------------------------------


chahat ki baris me...
E|--------------------------------------3--4--------------
B|-----1--3---3/6--6---6\3--3--3--3--6---------6/8--------
G|--------------------------------------------------------
D|--------------------------------------------------------
A|--------------------------------------------------------
E|--------------------------------------------------------


sardi ki raaton me
E|---3/8---8\3--3------3/10-10\3--3------3/11-11-11-10----10\8---8\6--6---6h-8p6-----8-----
B|-----------------------------------------------------------------------------------------
G|-----------------------------------------------------------------------------------------
D|-----------------------------------------------------------------------------------------
A|-----------------------------------------------------------------------------------------
E|-----------------------------------------------------------------------------------------


hum dono tahna ho
E|---3/8---8\3--3------3/6---6\1--1-----------4-----3-----------------------------------
B|---------------------------------------4/6-----------6-----4--3--3--4---3h-4p3--3-----
G|--------------------------------------------------------------------------------------
D|--------------------------------------------------------------------------------------
A|--------------------------------------------------------------------------------------
E|--------------------------------------------------------------------------------------



zara zara
E|-----------------------------------------------------------------------------------------------
B|-----3--4-----3--4-----3--3--4--6--3--4-----3--3--4--6--3--4-----3-----6---6/-8\-6/8--6---4\3--
G|-----------------------------------------------------------------------------------------------
D|-----------------------------------------------------------------------------------------------
A|-----------------------------------------------------------------------------------------------
E|-----------------------------------------------------------------------------------------------


tan badan....
E|-----------------------------------------------------------------------------------------
B|--4-----3--4-----3--3--4--6--3--4-----3--3--4--6--3--4-----------4---3h-4p3--------------
G|-----------------------------------------------------------5------------------5\3--3-----
D|-----------------------------------------------------------------------------------------
A|-----------------------------------------------------------------------------------------
E|-----------------------------------------------------------------------------------------


ye meri kasam.......
E|--------------------------------------------------------------------------------------
B|-----------------4--3-----------------3--1--------------------------------------------
G|---3/5-----5------------5\3-----3------------3\1-----1-----3--1--0------5/7-----5-----
D|--------------------------------------------------------------------------------------
A|--------------------------------------------------------------------------------------
E|--------------------------------------------------------------------------------------


ye doori
E|--------------------------------------------------------------------------------
B|-----------------4--3-----------------3--1--------------------------------------
G|---3/5-----5------------5\3-----3------------3\1-----1-----3--1--0------5/7-----
D|--------------------------------------------------------------------------------
A|--------------------------------------------------------------------------------
E|--------------------------------------------------------------------------------


flute part
E|--3-----3-----3---3h-4p3--------------------------------------------------------------------------
B|-----------------------------6-----6--4-----4--------------4--6------4h-6p4--------------4--6-----
G|-----------------------------------------------7-----7-----------------------5-----5--------------
D|--------------------------------------------------------------------------------------------------
A|--------------------------------------------------------------------------------------------------
E|--------------------------------------------------------------------------------------------------

E|--3-----3-----3---3h-4p3--------------------------------------------------------
B|--------------------------6-----6--4-----4--------------4--6------4h-6p4--------
G|--------------------------------------------7-----7-----------------------5-----
D|--------------------------------------------------------------------------------
A|--------------------------------------------------------------------------------
E|--------------------------------------------------------------------------------

E|------------------------------------------------------------------------------6h-8p6--8--10----
B|--------4-----4-----4---3h-4p3-----6-----6-----6---4h-6p4-----8-----8-----8--------------------
G|---3/5-----------------------------------------------------------------------------------------
D|-----------------------------------------------------------------------------------------------
A|-----------------------------------------------------------------------------------------------
E|-----------------------------------------------------------------------------------------------

E|--8--8---6h-8p8---4h-6p4--3--3--4---3h-4p3--------------------------------------
B|--------------------------------------------6-----4-----3--4--6---3h-4p3--------
G|--------------------------------------------------------------------------5-----
D|--------------------------------------------------------------------------------
A|--------------------------------------------------------------------------------
E|--------------------------------------------------------------------------------
tabs and chords, guitar tabs, music contests, music covers, songsterr, reverbnation, renditions, tabulature, bollywood chords, ultimate guitar, yousician, guitar lessons, torrins, fender, gibson, acoustic guitar, electric guitar, youtube covers, gootar, guitar tuner, A-Z tabs, 911 tabs