Guitar Tabs for Sun Le Zara - 1921 Tabs

(/) Slide Up  (\) Slide Down  (h) Hammer On  (p) Pull Off  (b) Bend (r) Release (v) Vibrato

Tabs for song Sun Le Zara - 1921

E|-----------------------------------------------
B|-----------------------------------------------
G|--4--5---5/9---9\4--4-----4--5---5/9---9\4--4--
D|-----------------------------------------------
A|-----------------------------------------------
E|-----------------------------------------------


E|--------------------------
B|--------------------------
G|--5--4--2------2p0--------
D|-----------5--------4-----
A|--------------------------
E|--------------------------


E|-----------------------------------
B|-----------------------------------
G|--------2---0h2--2--4--5---4/-5\4--
D|--4--5-----------------------------
A|-----------------------------------
E|-----------------------------------



E|-----------------------------
B|--------------------3--------
G|--------2---0h2--2-----5--4--
D|--4--5-----------------------
A|-----------------------------
E|-----------------------------


E|--------------------------
B|--------7---5/-7/-8\-7\5--
G|--4--5--------------------
D|--------------------------
A|--------------------------
E|--------------------------


E|--------------------------
B|--------5-----------------
G|--4--7------5/-7/-8\-7\5--
D|--------------------------
A|--------------------------
E|--------------------------


E|--------------------------------
B|--------------------------------
G|--2--5--4--------------2---2/4--
D|-----------5--4--4--5-----------
A|--------------------------------
E|--------------------------------
tabs and chords, guitar tabs, music transcription, music technology, deep learning, music information retrieval, transcribe into tabs & chords, chordify, music renditions, songsterr, reverbnation, tabulature, bollywood chords, ultimate guitar, yousician, guitar lessons, acoustic guitar, electric guitar, guitar tuner, 911 tabs