Guitar Tabs for Sundo

(/) Slide Up  (\) Slide Down  (h) Hammer On  (p) Pull Off  (b) Bend (r) Release (v) Vibrato (x) Muted

Intro
E|-----------------------------------------------------------------------------------------------------
B|--10----10----10----10-12\10-9-----9-----9-----9---5/7--8-----8-----8-----8--10\8--7-----7------7\2--
G|--6-----6-----6-----6--------6-----6-----6-----6--------6-----6-----6-----6--------7--7--7--7---7\2--
D|-----7-----7-----7--------------6-----6-----6--------------5-----5-----5-----------0-----------------
A|--0--------------------------0--------------------------0--------------------------------------------
E|-----------------------------------------------------------------------------------------------------

Song lyrics here
E|--------------------------------------------------4------4/5--5--4--------------------0--------------------------------
B|--------0--2-----0---0/2--0--2-----0--2-----------5------4/-------------5\-3\2--3-----------2---------5\-3\2--3--------
G|---1/2--2--2-----2---2/2--2--2-----2--2--------2--6--------------------------------------2--------2-----------------2--
D|--------------------------------------------2--------6-----------------------------------------------------------------
A|--------------0-----------------0--------0--------3--------------------------------0-----------------------------0-----
E|-----------------------------------------------------------------------------------------------------------------------

E|--
B|--
G|--
D|--
A|--
E|--

Paste any tab in acousterr's tab maker and we'll play it !!!
Now supports capo and sound effects for vibrato/pull-off/hammer/bends/mutes etc !!! Checkout help section
tabs and chords, guitar tabs, music contests, music covers, songsterr, reverbnation, renditions, tabulature, bollywood chords, ultimate guitar, yousician, guitar lessons, torrins, fender, gibson, acoustic guitar, electric guitar, youtube covers, gootar, guitar tuner, A-Z tabs, 911 tabs